» » »

Radiohead, Bangers N Mash Tabs (ver.2)

Artists:  A B C D E F G H I J K L M N O P Q R S T U V W X Y Z # 

Bangers N Mash Tabs (ver.2)

Radiohead Tabs
 Rating:
4/5 (4 votes)
Bangers N Mash lessons Tabs too difficult? Try these video lessons and learn fast
                (Live)
			     Bangers + Mash Live - Radiohead

This tab is taken from the live performance off pitchfork.tv


Tuning: Jonny is in drop A, Ed is standard

Jonny
Intro pt. 1
e|---------------------------------------------------------------------------|
B|---------------------------------------------------------------------------|
G|---------------------------------------------------------------------------|
D|--------------/x-x----/5-----------------/x-x----/5------------------------|
A|--------------/x-x-------5---------------/x-x-------5----------------------|
A|--10--12--10--/x-x-----------10--12--10--/x-x------------------------------|

Intro pt. 2, hit the (12) really fast or kinda mute it, one motion with the slide down
e|---------------------------------------------------------------------------|
B|---------------------------------------------------------------------------|
G|---------------------------------------------------------------------------|
D|-------------------/-5-----------------------/5----------------------------|
A|----------------x------5-x----------------x------5-------------------------|
A|--10--12-(12)//-x-0------x-/10--12-(12)//-x-0------------------------------|

Ed
let these notes ring            now without the B5 right before Thom comes in
e|---------------------------------------------------------------------------|
B|----5----5-5----5----5-5---------------------------------------------------|
G|-6--6----6-6----6----6-6-------6--6----6-6--6------------------------------|
D|-7--7----7-7----7----7-7-------7--7----7-7--7------------------------------|
A|-7--7----7-7----7----7-7-------7--7----7-7--7------------------------------|
E|-5--5----5-5----5----5-5-------5--5----5-5--5------------------------------|

Jonny verse, kinda improv the mutes
e|---------------------------------------------------------------------------|
B|-----x---xx----------x-----------------------------------------------------|
G|-----x---xx----------x-----------------------------------------------------|
D|---7-x---xx---7--7-7-x-----------------------------------------------------|
A|-----x-7-xx----------x-7---------------------------------------------------|
A|---------xx----------------------------------------------------------------|

2nd part of verse, improvised madness?
e|---------------------------------------------------------------------------|
B|---------------------------------------------------------------------------|
G|---------------------------------------------------------------------------|
D|-----------3---3-----------------------------------------------------------|
A|-(0)-3-0-3---3----0-3-0-/x--17--x----17----17-----17----------17-17-17-17--|
A|--0----0-----0----0---0-/x----x-x--0----15----0-0----0-15-15-0-------------|

When it goes to normal verse, i THINK Ed does something like so, getting his vocal 
let these ones ring as well
e|---------------------------------------------------------------------------|
B|-3-3--3--3-----------------------------------------------------------------|
G|-2----2--2-----------------------------------------------------------------|
D|-2----2--------------------------------------------------------------------|
A|---------------------------------------------------------------------------|
E|---------------------------------------------------------------------------|

Jonny
'if you are on the top' to 'the black will stare back, back into your soul'
e|-5-5-5-5-5-5-8-8-6h8p6h8p6h8p6h8-5-5-5-5-5-5-8-8-6h8p6h8p6h8p6h8-----------|
B|---------------------------------------------------------------------------|
G|---------------------------------------------------------------------------|
D|---------------------------------------------------------------------------|
A|---------------------------------------------------------------------------|
A|---------------------------------------------------------------------------|

soullllllll oouhhhhhh               -and repeat
e|---------------------------------------------------------------------------|
B|---------------------------------------------------------------------------|
G|-----12------------------11b-------11b-------11b---------------------------|
D|--------12------12-12--------12-------12--------12-----12-12----12-12------|
A|---------------------------------------------------------------------------|
A|---0--------0-0-------0-0-------0-0-------0-0-------0-0------0-0-----------|

Ed at the end plays his vocal melody again, and ring the notes
e|---------------------------------------------------------------------------|
B|---------------------------------------------------------------------------|
G|-{2}-/-{5}-/-{7}-/-{9}------{2}-/-{5}-/-{7}-/-{9}--------------------------|
D|---------------------------------------------------------------------------|
A|---------------------------------------------------------------------------|
E|---------------------------------------------------------------------------|


| \  slide up
| h  hammer-on
| p  pull-off
| {}  vibrato
| x  Mute note

alright that was fun. that's probably a better representation to the studio version as 
i just had to tab it nicely when i saw jonny play it, so have fun guys + gals
            
Submit corrections

comments powered by Disqus
↑ Back to top | Radiohead Tabs for Bangers N Mash. Lyrics for acoustic guitar and electric guitar. Tablatures and chords are parodies/interpretations of the original songs. You may use it for private study, scholarship, research or language learning purposes only