>
 >
Bangers N Mash 2

Bangers N Mash 2 Bass Tabs

Radiohead - Bangers N Mash 2 chords, tabs, tablatures, lyrics

Guitar lessons | Add/correct | Request | Top 50 tabs Artists:  A B C D E F G H I J K L M N O P Q R S T U V W X Y Z 0-9

Bangers N Mash 2 Bass Tabs – Radiohead

CD, Sheet music, Poster

Do you like Bangers N Mash 2? Share with your friends now
Bass TabsBass Tabs v2TabsTabs v2Tabs v3
-------------------------------------------------------------------------------
			     Bangers & Mash - Radiohead
-------------------------------------------------------------------------------


0:35
G|------------------------------------|
D|------------------------------------|
A|------------------------------------|
E|-11-13-13---3/----------------------| x 8

0:57
G|------------------------------------|
D|------------------------------------|
A|-0h10-12-0-0------------------------|
E|------------------------------------| x 4

1:18
G|------------------------------------|
D|------------------------------------|
A|------------------------------------|
E|-11-13-13---3/----------------------| x 8

1:32
G|------4-4---------------------------|
D|----5-----7-7------5----------------|
A|-/7-------------/7---7--------------|
E|-----------------------5-5-5-5-5----| x 2

1:38
G|------4-4---------------------------|          |-----4-|
D|----5-----7-7---7p5---5-------------|          |---5---|
A|-/7-----------------7---7-----------|          |-7-----|
E|--------------------------5-5-5-5-5-| x 2 then |-------|

1:46
G|------------------------------------|
D|------------------------------------|
A|------------------------------------|
E|-11-13-13---3/----------------------| x 8

2:07
G|------------------------------------|          |-----|
D|-5-5-7-7-7--------------------------|          |-5---|
A|------------------------------------|          |---7-|
E|------------------------------------| x 4 then |-----|

If someone can hear this part better than I please tell, I couldn't really figure out 
what he was doing here
2:14
G|------------------------------------|
D|---9---9----------------------------|
A|-0-11--11---------------------------|
E|----------0-3/----------------------| x 8

3:02
G|-------| |----------|
D|-5-3-3-| |----------|
A|-------| |-0--0-0-0-|
E|-------| |----------| x 8


| /  slide up
| \  slide down
| h  hammer-on
| p  pull-off
| ~  vibrato
| +  harmonic
| x  Mute note
===============================================================================





Comments


Popular Radiohead tabs & chords
My Iron Lung 2 Bass Tabs
High And Dry Chords
No Surprises 2 Chords
Subterranean Homesick Alien Chords
The Butcher Chords
The Gloaming Chords
Karma Police Drum Tabs
Electioneering Tabs
Lucky 1 Tabs
Let Down Ukulele


Song lyrics



↑ Back to top | Tablatures and chords are parodies/interpretations of the original songs. You may use it for private study, scholarship, research or language learning purposes only
© 2014 AZChords.com Contact us | Privacy policy | DMCA | Add/correct tabs | Request tabs | Top 50 tabs