» » »

Arpeggi Tabs (ver.2)

Artists:  A B C D E F G H I J K L M N O P Q R S T U V W X Y Z # 

Arpeggi Tabs (ver.2)

Radiohead
Rating:
3/5 (10 votes)

Hard to play? Try these video lessons and learn fast.
                Arpeggi
Radiohead
Bank of America (04-06-2006)
Standard Tuning (EADGBE)

This is an awesome song, but it's quite tricky in parts, the speed and rhythm is sometimes difficult to manipulate. 
This is transcribed from the Bank of America perfomance, and i'm sure it is perfect.Ed does do a little fill near the
end of the song, but it's so easy to work out from listening to the song, that I've not bothered putting it in. Enjoy!

Intro

e|----2-----2-----2-----2-----2-----2-----2-----2--|----2-----2-----2-----2-----2-----2-----2-----2--|
B|------3-----3-----3-----3-----3-----3-----3-----3|------5-----5-----5-----5-----5-----5-----5-----5|
G|-------------------------------------------------|-------------------------------------------------|
D|-------------------------------------------------|-------------------------------------------------|
A|--2-----2-----2-----2-----2-----2-----2-----2----|--3-----3-----3-----3-----3-----3-----3-----3----|
E|-------------------------------------------------|-------------------------------------------------|

e|----2-----2-----2-----2-----2-----2-----2-----2--|----2-----2-----2-----2-----2-----2-----2-----2--|
B|------3-----3-----3-----3-----3-----3-----3-----3|------2-----2-----2-----2-----2-----2-----2-----2|
G|-------------------------------------------------|-------------------------------------------------|
D|-------------------------------------------------|-------------------------------------------------|
A|--2-----2-----2-----2-----2-----2-----2-----2----|--0-----0-----0-----0-----0-----0-----0-----0----|
E|-------------------------------------------------|-------------------------------------------------|

e|----2-----2-----2-----2-----2-----2-----2-----2--|
B|------3-----3-----3-----3-----3-----3-----3-----3|
G|-------------------------------------------------|
D|-------------------------------------------------|
A|-------------------------------------------------|
E|--3-----3-----3-----3-----3-----3-----3-----3----|

In the deepest ocean............

e|--------------------------------------|--------------------------------------|
B|--3--------3--------3--------3--------|--5--------5--------5--------5--------|
G|-----0--------0--------0--------0-----|-----2--------2--------2--------2-----|
D|--------2--------2--------2--------2--|--------4--------4--------4--------4--|
A|--------------------------------------|--------------------------------------|
E|--------------------------------------|--------------------------------------|

e|----------------------------------------------------------------------------------|
B|----10-----10-----10-----10-----10-----10-----10------8------8------7------7------|
G|-------6------6------6------6------6------6------6------6------6------6------6----|
D|----------------------------------------------------------------------------------|
A|--7------7------7------7------7------7------7------7------7------7------7------7--|
E|----------------------------------------------------------------------------------|

e|-----------------------------------------------|
B|----7-----7-----7-----7-----7-----7-----7------|
G|------7-----7-----7-----7-----7-----7-----7----|
D|--9-----9-----9-----9-----9-----9-----9-----9--|
A|-----------------------------------------------|
E|-----------------------------------------------|

Why should I stay here............

e|--------------------------------------|--------------------------------------|
B|--3--------3--------3--------3--------|--5--------5--------5--------5--------|
G|-----0--------0--------0--------0-----|-----2--------2--------2--------2-----|
D|--------2--------2--------2--------2--|--------4--------4--------4--------4--|
A|--------------------------------------|--------------------------------------|
E|--------------------------------------|--------------------------------------|

e|----------------------------------------------------------------------------------|
B|----10-----10-----10-----10-----10-----10-----10------8------8------7------7------|
G|-------6------6------6------6------6------6------6------6------6------6------6----|
D|----------------------------------------------------------------------------------|
A|--7------7------7------7------7------7------7------7------7------7------7------7--|
E|----------------------------------------------------------------------------------|

e|-----------------------------------------------|
B|----7-----7-----7-----7-----7-----7-----7------|
G|------7-----7-----7-----7-----7-----7-----7----|
D|--9-----9-----9-----9-----9-----9-----9-----9--|
A|-----------------------------------------------|
E|-----------------------------------------------|

I'd be crazy............

e|--------------------------------------|--------------------------------------|
B|--3--------3--------3--------3--------|--5--------5--------5--------5--------|
G|-----0--------0--------0--------0-----|-----2--------2--------2--------2-----|
D|--------2--------2--------2--------2--|--------4--------4--------4--------4--|
A|--------------------------------------|--------------------------------------|
E|--------------------------------------|--------------------------------------|

e|----------------------------------------------------------------------------------|
B|----10-----10-----10-----10-----10-----10-----10------8------8------7------7------|
G|-------6------6------6------6------6------6------6------6------6------6------6----|
D|----------------------------------------------------------------------------------|
A|--7------7------7------7------7------7------7------7------7------7------7------7--|
E|----------------------------------------------------------------------------------|

e|-----------------------------------------------|
B|----7-----7-----7-----7-----7-----7-----7------|
G|------7-----7-----7-----7-----7-----7-----7----|
D|--9-----9-----9-----9-----9-----9-----9-----9--|
A|-----------------------------------------------|
E|-----------------------------------------------|

Turn me into phantoms............

e|--------------------------------------|--------------------------------------|
B|--3--------3--------3--------3--------|--5--------5--------5--------5--------|
G|-----0--------0--------0--------0-----|-----2--------2--------2--------2-----|
D|--------2--------2--------2--------2--|--------4--------4--------4--------4--|
A|--------------------------------------|--------------------------------------|
E|--------------------------------------|--------------------------------------|

e|----------------------------------------------------------------------------------|
B|----10-----10-----10-----10-----10-----10-----10------8------8------7------7------|
G|-------6------6------6------6------6------6------6------6------6------6------6----|
D|----------------------------------------------------------------------------------|
A|--7------7------7------7------7------7------7------7------7------7------7------7--|
E|----------------------------------------------------------------------------------|

e|-----------------------------------------------|
B|----7-----7-----7-----7-----7-----7-----7------|
G|------7-----7-----7-----7-----7-----7-----7----|
D|--9-----9-----9-----9-----9-----9-----9-----9--|
A|-----------------------------------------------|
E|-----------------------------------------------|

Everybody leaves............

e|--------------------------------------|--------------------------------------|
B|--3--------3--------3--------3--------|--5--------5--------5--------5--------|
G|-----0--------0--------0--------0-----|-----2--------2--------2--------2-----|
D|--------2--------2--------2--------2--|--------4--------4--------4--------4--|
A|--------------------------------------|--------------------------------------|
E|--------------------------------------|--------------------------------------|

e|----------------------------------------------------------------------------------|
B|----10-----10-----10-----10-----10-----10-----10------8------8------7------7------|
G|-------6------6------6------6------6------6------6------6------6------6------6----|
D|----------------------------------------------------------------------------------|
A|--7------7------7------7------7------7------7------7------7------7------7------7--|
E|----------------------------------------------------------------------------------|

e|-----------------------------------------------|
B|----7-----7-----7-----7-----7-----7-----7------|
G|------7-----7-----7-----7-----7-----7-----7----|
D|--9-----9-----9-----9-----9-----9-----9-----9--|
A|-----------------------------------------------|
E|-----------------------------------------------|

I get eaten by the worms........

e|----0-----0-----0-----0-----0-----3-----3-----2-----2-----2-----|----2-----2-----2-----2-----2-----2-----2-----2--|
B|------2-----2-----2-----2-----2-----2-----2-----2-----2-----2---|------3-----3-----3-----3-----3-----3-----3-----3|
G|----------------------------------------------------------------|-------------------------------------------------|
D|----------------------------------------------------------------|-------------------------------------------------|
A|--4-----4-----4-----4-----4-----4-----4-----4-----4-----4-----4-|--2-----2-----2-----2-----2-----2-----2-----2----|
E|----------------------------------------------------------------|-------------------------------------------------|

e|----0-----0-----0-----0-----0-----3-----3-----2-----2-----2-----|----2-----2-----2-----2-----2-----2-----2-----2--|
B|------2-----2-----2-----2-----2-----2-----2-----2-----2-----2---|------3-----3-----3-----3-----3-----3-----3-----3|
G|----------------------------------------------------------------|-------------------------------------------------|
D|----------------------------------------------------------------|-------------------------------------------------|
A|--4-----4-----4-----4-----4-----4-----4-----4-----4-----4-----4-|--2-----2-----2-----2-----2-----2-----2-----2----|
E|----------------------------------------------------------------|-------------------------------------------------|

With Fishies.......

e|----2-----2-----2-----2-----2-----2-----2-----2--|----2-----2-----2-----2-----2-----2-----2-----2--|
B|------2-----2-----2-----2-----2-----2-----2-----2|------3-----3-----3-----3-----3-----3-----3-----3|
G|-------------------------------------------------|-------------------------------------------------|
D|-------------------------------------------------|-------------------------------------------------|
A|--0-----0-----0-----0-----0-----0-----0-----0----|-------------------------------------------------|
E|-------------------------------------------------|--3-----3-----3-----3-----3-----3-----3-----3----|

e|----2-----2-----2-----2-----2-----2-----2-----2--|----2-----2-----2-----2-----2-----2-----2-----2--|
B|------3-----3-----3-----3-----3-----3-----3-----3|------5-----5-----5-----5-----5-----5-----5-----5|
G|-------------------------------------------------|-------------------------------------------------|
D|-------------------------------------------------|-------------------------------------------------|
A|--2-----2-----2-----2-----2-----2-----2-----2----|--3-----3-----3-----3-----3-----3-----3-----3----|
E|-------------------------------------------------|-------------------------------------------------|

e|----2-----2-----2-----2-----2-----2-----2-----2--|----2-----2-----2-----2-----2-----2-----2-----2--|
B|------3-----3-----3-----3-----3-----3-----3-----3|------2-----2-----2-----2-----2-----2-----2-----2|
G|-------------------------------------------------|-------------------------------------------------|
D|-------------------------------------------------|-------------------------------------------------|
A|--2-----2-----2-----2-----2-----2-----2-----2----|--0-----0-----0-----0-----0-----0-----0-----0----|
E|-------------------------------------------------|-------------------------------------------------|

e|----2-----2-----2-----2-----2-----2-----2-----2--|
B|------3-----3-----3-----3-----3-----3-----3-----3|
G|-------------------------------------------------|
D|-------------------------------------------------|
A|-------------------------------------------------|
E|--3-----3-----3-----3-----3-----3-----3-----3----|


I, Hit the bottom.........

e|----2-----2-----2-----2-----2-----2-----2-----2--|----2-----2-----2-----2-----2-----2-----2-----2--|
B|------3-----3-----3-----3-----3-----3-----3-----3|------5-----5-----5-----5-----5-----5-----5-----5|
G|-------------------------------------------------|-------------------------------------------------|
D|-------------------------------------------------|-------------------------------------------------|
A|--2-----2-----2-----2-----2-----2-----2-----2----|--3-----3-----3-----3-----3-----3-----3-----3----|
E|-------------------------------------------------|-------------------------------------------------|

e|----2-----2-----2-----2-----2-----2-----2-----2--|----2-----2-----2-----2-----2-----2-----2-----2--|
B|------3-----3-----3-----3-----3-----3-----3-----3|------2-----2-----2-----2-----2-----2-----2-----2|
G|-------------------------------------------------|-------------------------------------------------|
D|-------------------------------------------------|-------------------------------------------------|
A|--2-----2-----2-----2-----2-----2-----2-----2----|--0-----0-----0-----0-----0-----0-----0-----0----|
E|-------------------------------------------------|-------------------------------------------------|

e|----2-----2-----2-----2-----2-----2-----2-----2--|
B|------3-----3-----3-----3-----3-----3-----3-----3|
G|-------------------------------------------------|
D|-------------------------------------------------|
A|-------------------------------------------------|
E|--3-----3-----3-----3-----3-----3-----3-----3----|

That's it, an awesome song from what i'm hoping to be a great new album when it's released.
Cheers! 
            
Hard to play? Try these video lessons and learn fast. | Correct




comments powered by Disqus
↑ Back to top | Tablatures and chords are parodies/interpretations of the original songs. You may use it for private study, scholarship, research or language learning purposes only