» » »

Arpeggi Tabs (ver.1)

Artists:  A B C D E F G H I J K L M N O P Q R S T U V W X Y Z # 

Arpeggi Tabs (ver.1)

Radiohead
Rating:
3/5 (4 votes)

Hard to play? Try these video lessons and learn fast.
                Radiohead
Copenhagen  (7-5-06)
Standard Tuning (EADGBe)


Intro

e|-------------------------------------------------|-------------------------------------------------|
B|----7-----7-----7-----7-----7-----7-----7-----7--|----7-----7-----7-----7-----7-----7-----7-----7--|
G|------7-----7-----7-----7-----7-----7-----7-----7|------9-----9-----9-----9-----9-----9-----9-----9|
D|-------------------------------------------------|-------------------------------------------------|
A|-------------------------------------------------|-------------------------------------------------|
E|--7-----7-----7-----7-----7-----7-----7-----7----|--8-----8-----8-----8-----8-----8-----8-----8----|

e|-------------------------------------------------|-------------------------------------------------|
B|----7-----7-----7-----7-----7-----7-----7-----7--|---7-----7-----7-----7-----7-----7-----7-----7---|
G|------7-----7-----7-----7-----7-----7-----7-----7|------6-----6-----6-----6-----6-----6-----6----6-|
D|-------------------------------------------------|-------------------------------------------------|
A|-------------------------------------------------|-------------------------------------------------|
E|--7-----7-----7-----7-----7-----7-----7-----7----|-5-----5-----5-----5-----5-----5-----5-----5-----|

e|-------------------------------------------------|
B|----7-----7-----7-----7-----7-----7-----7-----7--|
G|------7-----7-----7-----7-----7-----7-----7-----7|
D|-------------------------------------------------|
A|-------------------------------------------------|
E|--8-----8-----8-----8-----8-----8-----8-----8----|

In the deepest ocean............

e|--------------------------------------|--------------------------------------|
B|--------------------------------------|--------------------------------------|
G|--7--------7--------7--------7--------|--9--------9--------9--------9--------|
D|-----5--------5--------5--------5-----|-----7--------7--------7--------7-----|
A|--------7--------7--------7--------7--|--------9--------9--------9--------9--|
E|--------------------------------------|--------------------------------------|

e|----------------------------------------------------------------------------------|
B|----------------------------------------------------------------------------------|
G|-14-------14-------14-------14-------14-------14-------14-------12-------11-------|
D|----11-------11-------11-------11-------11-------11-------11-------11-------11----|
A|----------------------------------------------------------------------------------|
E|-------12-------12-------12-------12-------12-------12-------12-------12-------12-|

e|--------------------------------------------------------------------|
B|--------------------------------------------------------------------|
G|-----12-------12-------12-------12-------12-------12-------12-------|
D|--------11-------11-------11-------11-------11-------11-------11----|
A|--14-------14-------14-------14-------14-------14-------14-------14-|
E|--------------------------------------------------------------------|

Why should I stay here............

e|--------------------------------------|--------------------------------------|
B|--------------------------------------|--------------------------------------|
G|--7--------7--------7--------7--------|--9--------9--------9--------9--------|
D|-----5--------5--------5--------5-----|-----7--------7--------7--------7-----|
A|--------7--------7--------7--------7--|--------9--------9--------9--------9--|
E|--------------------------------------|--------------------------------------|

e|----------------------------------------------------------------------------------|
B|----------------------------------------------------------------------------------|
G|-14-------14-------14-------14-------14-------14-------14-------12-------11-------|
D|----11-------11-------11-------11-------11-------11-------11-------11-------11----|
A|----------------------------------------------------------------------------------|
E|-------12-------12-------12-------12-------12-------12-------12-------12-------12-|

e|--------------------------------------------------------------------|
B|--------------------------------------------------------------------|
G|-----12-------12-------12-------12-------12-------12-------12-------|
D|--------11-------11-------11-------11-------11-------11-------11----|
A|--14-------14-------14-------14-------14-------14-------14-------14-|
E|--------------------------------------------------------------------|

I'd be crazy............

e|--------------------------------------|--------------------------------------|
B|--------------------------------------|--------------------------------------|
G|--7--------7--------7--------7--------|--9--------9--------9--------9--------|
D|-----5--------5--------5--------5-----|-----7--------7--------7--------7-----|
A|--------7--------7--------7--------7--|--------9--------9--------9--------9--|
E|--------------------------------------|--------------------------------------|

e|----------------------------------------------------------------------------------|
B|----------------------------------------------------------------------------------|
G|-14-------14-------14-------14-------14-------14-------14-------12-------11-------|
D|----11-------11-------11-------11-------11-------11-------11-------11-------11----|
A|----------------------------------------------------------------------------------|
E|-------12-------12-------12-------12-------12-------12-------12-------12-------12-|

e|--------------------------------------------------------------------|
B|--------------------------------------------------------------------|
G|-----12-------12-------12-------12-------12-------12-------12-------|
D|--------11-------11-------11-------11-------11-------11-------11----|
A|--14-------14-------14-------14-------14-------14-------14-------14-|
E|--------------------------------------------------------------------|

Turn me into phantoms............

e|--------------------------------------|--------------------------------------|
B|--------------------------------------|--------------------------------------|
G|--7--------7--------7--------7--------|--9--------9--------9--------9--------|
D|-----5--------5--------5--------5-----|-----7--------7--------7--------7-----|
A|--------7--------7--------7--------7--|--------9--------9--------9--------9--|
E|--------------------------------------|--------------------------------------|

e|----------------------------------------------------------------------------------|
B|----------------------------------------------------------------------------------|
G|-14-------14-------14-------14-------14-------14-------14-------12-------11-------|
D|----11-------11-------11-------11-------11-------11-------11-------11-------11----|
A|----------------------------------------------------------------------------------|
E|-------12-------12-------12-------12-------12-------12-------12-------12-------12-|

e|--------------------------------------------------------------------|
B|--------------------------------------------------------------------|
G|-----12-------12-------12-------12-------12-------12-------12-------|
D|--------11-------11-------11-------11-------11-------11-------11----|
A|--14-------14-------14-------14-------14-------14-------14-------14-|
E|--------------------------------------------------------------------|

Everybody leaves............

e|--------------------------------------|--------------------------------------|
B|--------------------------------------|--------------------------------------|
G|--7--------7--------7--------7--------|--9--------9--------9--------9--------|
D|-----5--------5--------5--------5-----|-----7--------7--------7--------7-----|
A|--------7--------7--------7--------7--|--------9--------9--------9--------9--|
E|--------------------------------------|--------------------------------------|

e|----------------------------------------------------------------------------------|
B|----------------------------------------------------------------------------------|
G|-14-------14-------14-------14-------14-------14-------14-------12-------11-------|
D|----11-------11-------11-------11-------11-------11-------11-------11-------11----|
A|----------------------------------------------------------------------------------|
E|-------12-------12-------12-------12-------12-------12-------12-------12-------12-|

e|--------------------------------------------------------------------|
B|--------------------------------------------------------------------|
G|-----12-------12-------12-------12-------12-------12-------12-------|
D|--------11-------11-------11-------11-------11-------11-------11----|
A|--14-------14-------14-------14-------14-------14-------14-------14-|
E|--------------------------------------------------------------------|

I get eaten by the worms........

e|----------------------------------------------------------------|-------------------------------------------------|
B|----5-----5-----5-----5-----5-----8-----8-----7-----7-----7-----|----7-----7-----7-----7-----7-----7-----7-----7--|
G|------6-----6-----6-----6-----6-----6-----6-----6-----6-----6---|------7-----7-----7-----7-----7-----7-----7-----7|
D|----------------------------------------------------------------|-------------------------------------------------|
A|----------------------------------------------------------------|-------------------------------------------------|
E|--9-----9-----9-----9-----9-----9-----9-----9-----9-----9-----9-|--7-----7-----7-----7-----7-----7-----7-----7----|

e|----------------------------------------------------------------|-------------------------------------------------|
B|----5-----5-----5-----5-----5-----8-----8-----7-----7-----7-----|----7-----7-----7-----7-----7-----7-----7-----7--|
G|------6-----6-----6-----6-----6-----6-----6-----6-----6-----6---|------7-----7-----7-----7-----7-----7-----7-----7|
D|----------------------------------------------------------------|-------------------------------------------------|
A|----------------------------------------------------------------|-------------------------------------------------|
E|--9-----9-----9-----9-----9-----9-----9-----9-----9-----9-----9-|--7-----7-----7-----7-----7-----7-----7-----7----|

With Fishes.......

e|----2-----2-----2-----2-----2-----2-----2-----2--|----2-----2-----2-----2-----2-----2-----2-----2--|
B|------2-----2-----2-----2-----2-----2-----2-----2|------3-----3-----3-----3-----3-----3-----3-----3|
G|-------------------------------------------------|-------------------------------------------------|
D|-------------------------------------------------|-------------------------------------------------|
A|--0-----0-----0-----0-----0-----0-----0-----0----|-------------------------------------------------|
E|-------------------------------------------------|--3-----3-----3-----3-----3-----3-----3-----3----|

e|-------------------------------------------------|-------------------------------------------------|
B|----7-----7-----7-----7-----7-----7-----7-----7--|----7-----7-----7-----7-----7-----7-----7-----7--|
G|------7-----7-----7-----7-----7-----7-----7-----7|------9-----9-----9-----9-----9-----9-----9-----9|
D|-------------------------------------------------|-------------------------------------------------|
A|-------------------------------------------------|-------------------------------------------------|
E|--7-----7-----7-----7-----7-----7-----7-----7----|--8-----8-----8-----8-----8-----8-----8-----8----|

e|-------------------------------------------------|-------------------------------------------------|
B|----7-----7-----7-----7-----7-----7-----7-----7--|---7-----7-----7-----7-----7-----7-----7-----7---|
G|------7-----7-----7-----7-----7-----7-----7-----7|------6-----6-----6-----6-----6-----6-----6----6-|
D|-------------------------------------------------|-------------------------------------------------|
A|-------------------------------------------------|-------------------------------------------------|
E|--7-----7-----7-----7-----7-----7-----7-----7----|-5-----5-----5-----5-----5-----5-----5-----5-----|




e|-------------------------------------------------|
B|----7-----7-----7-----7-----7-----7-----7-----7--|
G|------7-----7-----7-----7-----7-----7-----7-----7|
D|-------------------------------------------------|
A|-------------------------------------------------|
E|--8-----8-----8-----8-----8-----8-----8-----8----|


I, Hit the bottom.........

e|-------------------------------------------------|-------------------------------------------------|
B|----7-----7-----7-----7-----7-----7-----7-----7--|----7-----7-----7-----7-----7-----7-----7-----7--|
G|------7-----7-----7-----7-----7-----7-----7-----7|------9-----9-----9-----9-----9-----9-----9-----9|
D|-------------------------------------------------|-------------------------------------------------|
A|-------------------------------------------------|-------------------------------------------------|
E|--7-----7-----7-----7-----7-----7-----7-----7----|--8-----8-----8-----8-----8-----8-----8-----8----|

e|-------------------------------------------------|-------------------------------------------------|
B|----7-----7-----7-----7-----7-----7-----7-----7--|---7-----7-----7-----7-----7-----7-----7-----7---|
G|------7-----7-----7-----7-----7-----7-----7-----7|------6-----6-----6-----6-----6-----6-----6----6-|
D|-------------------------------------------------|-------------------------------------------------|
A|-------------------------------------------------|-------------------------------------------------|
E|--7-----7-----7-----7-----7-----7-----7-----7----|-5-----5-----5-----5-----5-----5-----5-----5-----|




e|-------------------------------------------------|
B|----7-----7-----7-----7-----7-----7-----7-----7--|
G|------7-----7-----7-----7-----7-----7-----7-----7|
D|-------------------------------------------------|
A|-------------------------------------------------|
E|--8-----8-----8-----8-----8-----8-----8-----8----|
            
Hard to play? Try these video lessons and learn fast. | Correct




comments powered by Disqus
↑ Back to top | Tablatures and chords are parodies/interpretations of the original songs. You may use it for private study, scholarship, research or language learning purposes only