» » »

All I Need Bass tabs (ver.3)

Artists:  A B C D E F G H I J K L M N O P Q R S T U V W X Y Z # 

All I Need Bass tabs (ver.3)

Radiohead
Rating:
4/5 (2 votes)

Hard to play? Try these video lessons and learn fast.
                -------------------------------------------------------------------------------
			   "All I Need", by Radiohead
-------------------------------------------------------------------------------

Buenos Aires, Argentina, 2009

Tuning: EADG (Standard)

Hi, this is the "easy" way to play "All I Need". You may want to use an octavizer.

INTRO:
G|-----
D|-----
A|(3...)
E|-----

G|-------0---------4--0...---7---------|
D|---------2...------------------------|
A|3...---------------------------------|
E|-----------------------------8...----|

MAIN RIFF:
G|0---------4-0...----7---------|
D|--2...------------------------|
A|------------------------------|
E|----------------------8...----|

CHORUS VARIATIONS:
·Variation 1:
G|--------0--------------7--------|
D|----------2...------------------|
A|-3...---------------------------|
E|-------------------------8...---|
        (  repeats                )

·Variation at: 1.35 aprox.
G|------------------7-------|
D|----------------9---------|
A|---------10p7-------------|
E|--8...--------------8-----|

·REPEAT VERSES

·REPEAT CHORUS

OUTRO:
G|--7--------|
D|-----------|
A|-----------|
E|----8------|
[until the end]

ENDS WITH:
G|-----|
D|-----|
A|3...-|
E|-----|
            
Hard to play? Try these video lessons and learn fast. | Correct




comments powered by Disqus
↑ Back to top | Tablatures and chords are parodies/interpretations of the original songs. You may use it for private study, scholarship, research or language learning purposes only