» » »

Radiohead, All I Need Bass tabs (ver.2)

Artists:  A B C D E F G H I J K L M N O P Q R S T U V W X Y Z # 

All I Need Bass tabs (ver.2)

Radiohead Tabs
Rating:
5/5 (3 votes)
All I Need lessons Tabs too difficult? Try these video lessons and learn fast
                -------------------------------------------------------------------------------
-------------------------------------------------------------------------------


Tuning: Standard (BEADG) or (EADG)

I think this is played too low for standard 4-string tuning so I have tabbed it in 
standard (BEADG) or you could use an effect to get you down, or tune down. Whatever you find 
really, I have also tabbed it what sounds an octave too high for you 4-stringers.
How I have sectioned off the phrases may not be musically correct but is easiest to read 
tab.

5-string version:

Verse (0:20) x8
G|-------------------|
D|-------------------|
A|------------2----5-|
E|------3-0-----3----|
B|-1-----------------|

Chorus (1:15)
G|----------------|
D|----------------|
A|--------------5-| x3
E|------3-0-------|
B|-1--------------|

G|----------------|
D|----------------|
A|------------2-5-|
E|------3-0-------|
B|-1--------------|

G|-------------------|
D|-------------------|
A|------------2----5-|
E|------3-0-----3----|
B|-1-----------------|

Verse (1:42) x6
G|-------------------|
D|-------------------|
A|------------2----5-|
E|------3-0-----3----|
B|-1-----------------|

Chorus (2:23)
G|----------------|
D|----------------|
A|--------------5-|
E|------3-0-------|
B|-1--------------|

G|----------------|
D|----------------|
A|------------2-5-|
E|------3-0-------|
B|-1--------------|

G|----------------|
D|----------------|
A|--------------5-|
E|------3-0-------|
B|-1--------------|

G|--------------------------|
D|--------------------------|
A|------------2----5--------|
E|------3-0-----3-----------|
B|-1-----------------1------|

Outro (2:45)
G|-----------|
D|-----------|
A|--5--------|
E|-----------|
B|----1------|

G|--------------------------------------------------|
D|--------------------------------------------------|
A|--5------------5---------------------2------------| x2
E|--------------------------3-0----------3----------|
B|----1------------1--------------------------------|

G|--------------------------------------------------|
D|--------------------------------------------------|
A|--5------------5----------5----------2----------2-| x2
E|----------------------------0----------3----------|
B|----1------------1--------------------------------|

G|------------------------|
D|------------------------|
A|--5----------5----------|
E|------------------------|
B|----1----------1--------|

4-string version:

Verse (0:20) x8
G|------------4----7-|
D|------5-2-----5----|
A|-3-----------------|
E|-------------------|

Chorus (1:15)
G|--------------7-|
D|------5-2-------|
A|-3--------------| x3
E|----------------|

G|------------4-7-|
D|------5-2-------|
A|-3--------------|
E|----------------|

G|------------4----7-|
D|------5-2-----5----|
A|-3-----------------|
E|-------------------|

Verse (1:42) x6
G|------------4----7-|
D|------5-2-----5----|
A|-3-----------------|
E|-------------------|

Chorus (2:23)
G|--------------7-|
D|------5-2-------|
A|-3--------------|
E|----------------|

G|------------4-7-|
D|------5-2-------|
A|-3--------------|
E|----------------|

G|--------------7-|
D|------5-2-------|
A|-3--------------|
E|----------------|

G|------------4----7--------|
D|------5-2-----5-----------|
A|-3-----------------3------|
E|--------------------------|

Outro (2:45)
G|--7--------|
D|-----------|
A|----3------|
E|-----------|

G|--7------------7---------------------4------------|
D|--------------------------5-2----------5----------|
A|----3------------3--------------------------------| x2
E|--------------------------------------------------|

G|--7------------7----------7----------4----------4-|
D|----------------------------2----------5----------|
A|----3------------3--------------------------------| x2
E|--------------------------------------------------|

G|--7----------7--------|
D|----------------------|
A|----3----------3------|
E|----------------------|

| /  slide up
| \  slide down
| h  hammer-on
| p  pull-off
| ~  vibrato
| +  harmonic
| x  Mute note
===============================================================================
            
Submit corrections

comments powered by Disqus
↑ Back to top | Radiohead Bass for All I Need. Lyrics for acoustic guitar and electric guitar. Tablatures and chords are parodies/interpretations of the original songs. You may use it for private study, scholarship, research or language learning purposes only