» » »

Radiohead, 15 Step Tabs (ver.3)

Artists:  A B C D E F G H I J K L M N O P Q R S T U V W X Y Z # 

15 Step Tabs (ver.3)

Radiohead Tabs
 Rating:
4.8/5 (24 votes)
15 Step lessons Tabs too difficult? Try these video lessons and learn fast
1
                -----------------------------------------------------------------------------
                             15 Step - Radiohead
-------------------------------------------------------------------------------

Tuning:EBGDAE
Live in Copenhagen

How come I end up where I started
How come I don't end where I belong
Don't take your eyes off the ball again
You reel me out then you cut the string

How come I end up where I started
How come I end up where I went wrong
Don't take your eyes off the ball again
You reel me out then you cut the string

After 50 seconds or so, Jonny steps in:
e|--------------------------------------------------------------------------|
B|----------4------4---------6--4--6-----------7-6-4-----------6--4---------|
G|--------------6------------------------------------------------------6--4-|
D|--------------------------------------------------------------------------|
A|----------------------/4---------------(/)6-------------4-----------------|
E|-------4------------------------------------------------------------------|
 
e|--------------------------------------------------------------------------|
B|----------4------4---------6--4--6-----------7-6-4-----------6--4---------|
G|--------------6------------------------------------------------------6----|
D|--------------------------------------------------------------------------|
A|----------------------/4---------------(/)6-------------4-----------------|
E|-------4------------------------------------------------------------------|

(You used to be alright.....)
e|--------------------------------------------------------------------------|
B|----------4------4---------6--4--6-----------7-6-4-----------6--4---------|
G|--------------6------------------------------------------------------6----|
D|--------------------------------------------------------------------------|
A|----------------------/4---------------(/)6-------------4-----------------|
E|-------4------------------------------------------------------------------|

(Did the cat get your tongue)
e|--------------------------------------------------------------------------|
B|----------4------4------------4--6-----------7-6-4-----------6--4---------|
G|--------------6--------------6----------------------------------------6---|
D|----------------------------6---------------------------------------------|
A|----------------------/4---------------(/)6-------------4-----------------|
E|-------4------------------------------------------------------------------|

(Did your string come undone)
e|--------------------------------------------------------------------------|
B|----------4------4---------6--4--6-----------7-6-4-----------6--4---------|
G|--------------6------------------------------------6---------------6--4---|
D|--------------------------------------------------------------------------|
A|----------------------/4---------------(/)6-------------4-----------------|
E|-------4------------------------------------------------------------------|

(One by one)
e|--------------------------------------------------------------------------|
B|----------4------4---------6--4--6-----------7-6-4-----------6--4---------|
G|--------------6------------------------------------------------------6----|
D|--------------------------------------------------------------------------|
A|----------------------/4---------------(/)6-------------4-----------------|
E|-------4------------------------------------------------------------------|

~1:31, in this section Jonny uses another approach, listen carefully to the song:
(One by one)
e|--------------------------------------------------------------------------|
B|----------4------4--------6-4---6-----------7-6--4-----------6--4---------|
G|------------6------------------------------------------------------6--4---|
D|--------------------------------------------------------------------------|
A|----------------------/4---------------(/)6-------------4-----------------|
E|-------4------------------------------------------------------------------|

Back to the 'normal' approach:
(Come to us..)
e|--------------------------------------------------------------------------|
B|----------4------4---------6--4--6-----------7-6-4-----------6--4----6----|
G|--------------6-----------------------------------------------------------|
D|--------------------------------------------------------------------------|
A|----------------------/4---------------(/)6-------------4-----------------|
E|-------4------------------------------------------------------------------|

(Slow as your pillow)
e|--------------------------------------------------------------------------|
B|----------4------4---------6--4--6-----------7-6-4-----------6--4---------|
G|--------------6------------6-----6-----------8-6---------------------6----|
D|--------------------------------------------------------------------------|
A|----------------------/4---------------(/)6-------------4-----------------|
E|-------4------------------------------------------------------------------|

Interlude:
e|----------------------------------------------|
B|-----5-----------5----------4---------4-------|
G|--------6-----------6----------5---------5----|
D|-----------6-----------6----------5---------5-|
A|----------------------------------------------|
E|----------------------------------------------|

Repeat 4 times:
e|--------------------------------|
B|----4---------------------------|
G|--------6---4-4---3--4--3-------|
D|----------------------------6---|
A|--------------------------------|
E|--4-----------------------------| (may be bass)

Slightly different approach again
(You used to be alright....)
e|--------------------------------------------------------------------------|
B|----------4------4--------6-4---6-----------7-6--4-----------6--4---------|
G|------------6------------------------------------------------------6------|
D|--------------------------------------------------------------------------|
A|--------------------------------------------------------------------------|
E|-------4------------------------------------------------------------------|

(Etcetera....)
e|--------------------------------------------------------------------------|
B|----------4------4--------6-4---6-----------7-6--4-----------6--4---------|
G|------------6------------------------------------------------------6------|
D|--------------------------------------------------------------------------|
A|-----------------------------------------6----------------4---------------|
E|-------4------------------------------------------------------------------|

(Thanks for whatever)
e|--------------------------------------------------------------------------|
B|----------4------4--------6-4---6-----------7-6-4----------6-4------------|
G|------------6---------------------------------------4----------6--4-------|
D|--------------------------------------------------------------------------|
A|----------------------/4--------------------------------------------------|
E|-------4------------------------------------------------------------------|

(15 steps then a sheer drop)
e|--------------------------------------------------------------------------|
B|----------4------4--------6-4---6-----------7-6--4-----------6--4---------|
G|------------6------------------------------------------------------6------|
D|--------------------------------------------------------------------------|
A|----------------------/4---------------(/)6-------------4-----------------|
E|-------4------------------------------------------------------------------|

How come I up end where I started
How come I end up where I belong
Won't take my eyes off the ball again
You reel me in then you let me in

Ending: Repeat ~4 times
e|----4------------------|
B|--------7--5-5--3------|
G|-------------------6-5-|
D|-----------------------|
A|-----------------------|
E|--3--------------------|

| /  slide up
| \  slide down
| h  hammer-on
| p  pull-off
| ~  vibrato
| +  harmonic
| x  Mute note
===============================================================================
            
Submit corrections

comments powered by Disqus
↑ Back to top | Radiohead Tabs for 15 Step. Lyrics for acoustic guitar and electric guitar. 1 Tablatures and chords are parodies/interpretations of the original songs. You may use it for private study, scholarship, research or language learning purposes only