>
 >
15 Step

15 Step Bass Tabs

Radiohead - 15 Step chords, tabs, tablatures, lyrics

Guitar lessons | Add/correct | Request | Top 50 tabs Artists:  A B C D E F G H I J K L M N O P Q R S T U V W X Y Z 0-9

15 Step Bass Tabs – Radiohead

CD, Sheet music, Poster

Do you like 15 Step? Share with your friends now
Bass TabsBass Tabs v2Bass Tabs v3ChordsChords v2TabsTabs v2Tabs v3Tabs v4Tabs v5Ukulele
Band: Radiohead
Normal Tuning: GDAE


0.42
G|------------6~------(6)-8~------(8)-6~------(6)-|
D|6~------(6)-------------------------------------|
A|------------------------------------------------|
E|------------------------------------------------|x5


1:15
G|---------------------------------|
D|---------------------------------|
A|2-------4-------6-------4--------|
E|--4-224---4-224---4-224---4-224--|x4



1:39
G|6----------65-----------5---------------------------------------------------------------|
D|------------------------------------6-----66-----6-66-66---6-66-66---6-66-66---6-66-66--|
A|----------------------------------------------------------------------------------------|
E|----------------------------------------------------------------------------------------|


1.58
G|------------6~------(6)-8~------(8)-6~------(6)-|
D|6~------(6)-------------------------------------|
A|------------------------------------------------|
E|------------------------------------------------|

G|------------6~----------------------------------|
D|6~------------------------6644------------------|
A|------------------------------664---------------|
E|---------------------------------74-4--0-2-----4|

G|------------6~----------------------------------|
D|6~----------------------------------------------|
A|------------------------6~----------4~----------|
E|------------------------------------------------|

G|------------6~----------------------------------|
D|6~----------------------------------------------|
A|------------------------6~----------4~----------|
E|-----------------------------------------------4|


2.40
G|-------------------------------------------------------------------------|
D|-------------------------------------------------------------------------|
A|-------------------------------------------------------------------------|
E|7--4--02474-7--4--47474-7--4--02474-7--4--7-474-7--4--47474-7--4--02474--|

G|------------------------------------------|
D|--6644-----------------6644---------------|
A|------664------------------664------------|
E|---------74-4--02474----------74-4--4747--|

G|--------------------------------------------------------------------------|
D|--------------------------------------------------------------------------|
A|----------------------4---------------------------------------------------|
E|7--4--47474-7--4--4747--7--4--47474--7--4--02474-7--4--47474-7--4--47474--|

G|-------------------------------------------|
D|--6644-----------------6644----------------|
A|------664------------------664-------------|
E|---------74-4--47474----------74-4--02474--|

G|-------------------------------------------------------------------------|
D|-------------------------------------------------------------------------|
A|-------------------------------------------------------------------------|
E|7--4--02474-7774--47474-7--4--47474-7774--02474-7--4--47474-7--4--02474--|


G|------------------------|
D|------------------------|
A|------------------------|
E|7--4--02474-7--4--0247--|





Comments


Popular Radiohead tabs & chords
Lull Bass Tabs
Big Ideas Nude Chords
Climbing Up The Walls 1 Chords
A Wolf At The Door Drum Tabs
I Might Be Wrong 2 Tabs
Little By Little 3 Tabs
Million Dollar Question Tabs
Sail To The Moon 1 Tabs
Everything In Its Right Place 2 Ukulele
Identikit Ukulele


Song lyrics



↑ Back to top | Tablatures and chords are parodies/interpretations of the original songs. You may use it for private study, scholarship, research or language learning purposes only
© 2014 AZChords.com Contact us | Privacy policy | DMCA | Add/correct tabs | Request tabs | Top 50 tabs