>
 >
Welcome Home 1

Welcome Home 1 Guitar Tabs

Radical Face - Welcome Home 1 chords, tabs, tablatures, lyrics

Guitar lessons | Add/correct | Request | Top 50 tabs Artists:  A B C D E F G H I J K L M N O P Q R S T U V W X Y Z 0-9

Welcome Home 1 Guitar Tabs – Radical Face

CD, Sheet music, Poster

Do you like Welcome Home 1? Share with your friends now
ChordsChords v2Chords v3Chords v4Chords v5Chords v6TabsTabs v2Ukulele
RADICAL FACE
WELCOME HOME
> Standard tuning: capo 1st!! <

INTRO:
||---------------------------------|----------------------------------------------|
||---------------------------------|----------------------------------------------|
||---------------------------------|----------------------------------------------|
||-----3----3----3----3----3----3--|----3---3---3---2---2-----(2)-----(2)---------|
||---------------------------------|--0---0---0---0---0---(0)-----(0)-----(0)--3--|
||--1----1----1----1----1----1-----|----------------------------------------------| x3

|----------------------------------------------------------------------|
|----------------------------------------------------------------------|
|----------------------------------------------------------------------|
|----3---3---3---3---3---3---3---3-----3---3---3---3---3---3----5---5--|
|--1---1---1-------------------------1---1---1----------------3---3----|
|--------------1---1---1---1---1-----------------1---1---1-------------|

|-------------------------------------------------------------------------------------|
|-------------------------------------------------------------------------------------|
|-------------------------------------------------------------------------------------|
|----3---3---3---3---3---3---3---3-----3---3---3---3---3---3----5---5---5---7---7---7-|
|--1---1---1-------------------------1---1---1----------------3---3---3---3---3---3---|
|--------------1---1---1---1---1-----------------1---1---1----------------------------|

VERSE:
(Sleep..)
|-----------------------------------------------------|
|-----------------------------------------------------|
|-----------------------------------------------------|
|----3---3---3---3---3---3----2---2---2---2---2-------|
|---------------------------0---0---0---0---0---0--3--|
|--1---1---1---1---1---1------------------------------|

(So I choke..)
|---------------------------------------------------------------------|
|---------------------------------------------------------------------|
|---------------------------------------------------------------------|
|----3---3---3---3---3---3---3---3----3---3---3---3---3---3----5---5--|
|--1---1---1------------------------1---1---1----------------3---3----|
|--------------1---1---1---1---1----------------1---1---1-------------| x2

(Sheets..)
|-----------------------------------------------------|
|-----------------------------------------------------|
|-----------------------------------------------------|
|----3---3---3---3---3---3----2---2---2---2---2-------|
|---------------------------0---0---0---0---0---0--3--|
|--1---1---1---1---1---1------------------------------|

(From an old..)
|-----------------------------------------------------------|----------|
|-----------------------------------------------------------|----------|
|-----------------------------------------------------------|----------|
|----3---3---3---3---3---3---3---3----3---3---3---3---3---3-|---5---5--|
|--1---1---1------------------------1---1---1---------------|-3---3----|
|--------------1---1---1---1---1----------------1---1---1---|----------|

|-----------------------------------------------------------|-------------|
|-----------------------------------------------------------|-------------|
|-----------------------------------------------------------|-------------|
|----3---3---3---3---3---3---3---3----3---3---3---3---3---3-|---5---5---7-|
|--1---1---1------------------------1---1---1---------------|-3---3---3---|
|--------------1---1---1---1---1----------------1---1---1---|-------------|

CHORUS:
(Welcome home..)
|---5---6---1---|
|---6---6---1---|
|---7---7---2---|
|---7---8---3---|
|---5---8---3---|
|-------6---1---| x4

REPEAT VERSE
REPEAT CHORUS
+ Chorus x2 picked
REPEAT CHORUS

(And I don't know..)
|--6---1---3---|
|--6---1---5---|
|--7---2---5---|
|--8---3---5---|
|--8---3---3---|
|--6---1-------|

(Uhuh..)
|--5---1---6---5---|     |------1---3---|     --5---3---|
|--6---1---6---5---|     |------1---5---|     --7---5---|
|--7---2---7---5---|     |--3---2---5---|     --7---5---|
|--7---3---8---7---|     |--3---3---5---|     --7---5---|
|--5---3---8---7---|     |--1---3---3---|     --5---3---|
|------1---6---5---| x2  |------1-------| x3  ----------|

|--6---5---|
|--6---6---|
|--7---7---|
|--8---7---|
|--8---5---|
|--6-------| x3





Comments


Popular Radical Face tabs & chords
Burning Bridges Chords
Glory 1 Chords
Moon Is Down Chords
Reminders 1 Chords
The Deserters Song Chords
Welcome Home Chords
Winter Is Coming Tabs
Homesick Ukulele
The Dead Waltz Ukulele
Were On Our Way Ukulele


Song lyrics



↑ Back to top | Tablatures and chords are parodies/interpretations of the original songs. You may use it for private study, scholarship, research or language learning purposes only
© 2014 AZChords.com Contact us | Privacy policy | DMCA | Add/correct tabs | Request tabs | Top 50 tabs