» » »

Radical Face, Welcome Home Chords (ver.2)

Artists:  A B C D E F G H I J K L M N O P Q R S T U V W X Y Z # 

Welcome Home Chords (ver.2)

Radical Face Tabs
 Rating:
4.7/5 (13 votes)
Welcome Home lessons Tabs too difficult? Try these video lessons and learn fast
                -------------------------------------------------------------------------------
                           WELCOME HOME - Radical Face
-------------------------------------------------------------------------------

Tuning: Standard tuning dropped 1/2 step (D# G# C# F# A# D#)
        All chords below written as if they were in standard tuning

Intro:

e|------------------------------|
B|------------------------------|
G|------------------------------|
D|--5-5-5-5-5-5-5-5-5-4-4-4-4-0-|
A|-------------2-2-2-2-2-2-2-2--|
E|-3-3-3-3-3-3------------------|
   G          Em     Bm            Repeat several times

Verse:

G           Em Bm        C     C2 G
Sleep don't vi-sit, so I choke on sun
        C    C2   G    D
And the days blur into one
        C     C2    G             C      C2   G     D
And the backs of my eyes hum with things I've never done

e|----------------------------------------|
B|----------------------------------------|
G|----------0---0---0-------------4-2-2-0-|
D|--2-0-0-0---0---0--------------0-0-0-0--|
A|---2----------------0-------------------|
E|-3---3-3-3-3-3-3-3-3--------------------|
   C C2 G (repeat as necessary)  D

Sheets are swaying from an old clothesline
Like a row of captured ghosts over old dead grass
Was never much but we made the most

Chorus (strum chords):

G   G/f# Em   C C2 G
Wel-come ho-o-o-o--me

Em   C C2 G
Ho-o-o-o--me

G/f#: 220033 or 220003
  C2: 032030 or 330010

You can also play G G/F# lead-in as:

e|------|
B|------|
G|--0-0-|
D|-5-4--|
A|------|
E|------|

Ships are launching from my chest
Some have names but most do not
If you find one, please let me know what piece I've lost

Heal the scars from off my back
I don't need them anymore
You can throw them out or keep them in your mason jars

Harmony (with second guitar):
e|---10--|
B|--8--8-|
G|-0-----|
D|-------|
A|-------|
E|-------|

Chorus:

I've come home

Extended chorus (same chords as chorus):

All my nightmares escaped my head
Bar the door, please don't let them in

You were never supposed to leave
Now my head's splitting at the seams
    C               D 
And I don't know if I can

Bridge:

Alternate Em and Bm, you can use this progression:

e|-0--3----2--7--7--2-|
B|-0--0----3--7--8--3-|
G|-0--0----4--7--9--4-|
D|-2--2----4--9--9--4-|
A|-2--2----2--9--7--2-|
E|-0--0----2--7--7--2-|
   Em Em/G Bm Bm Em Bm

C/G   G       D  C/G      G    D    C/G    G     Bm Em G  D     C
Here, beneath my lungs, I feel your thumbs press in to my skin  again

  G: 320033
C/G: 032013

Outro:

Alternate between C and Em, you can use this progression:

C/G C/F# C/G C/F# Em/G Em/F# Em/G Em/F#

 C/F#: 032012
 Em/G: 022003
Em/F#: 022002

on how to play the song.
            
Submit corrections

comments powered by Disqus
↑ Back to top | Radical Face Chords for Welcome Home. Lyrics for acoustic guitar and electric guitar. Tablatures and chords are parodies/interpretations of the original songs. You may use it for private study, scholarship, research or language learning purposes only