» » »

Radical Face, Welcome Home Tabs (ver.1)

Artists:  A B C D E F G H I J K L M N O P Q R S T U V W X Y Z # 

Welcome Home Tabs (ver.1)

Radical Face Tabs
 Rating:
4/5 (12 votes)
Welcome Home lessons Tabs too difficult? Try these video lessons and learn fast
                -------------------------------------------------------------------------------
                             Welcome Home – Radical Face
-------------------------------------------------------------------------------

Tuning:Standard

Intro:

   F#
E||-------------------------------------------------|
B||-------------------------------------------------|   
G||-------------------------------------------------|
D||----4-----4-----4-----4-----4-----4-----4-----4--|
A||-------------------------------------------------|
E||-2-----2-----2-----2-----2-----2-----2-----2-----|
  Bb?                Bb                                 x3  
e|--------------------------------------------------||
B|--------------------------------------------------||
G|--------------------------------------------------||
D|----4-----4-----4-----3-----3-----3---------------|| 
A|-1-----1-----1-----1-----1-----1---------1--4-----||
E|--------------------------------------------------||

E||-------------------------------------------------||
B||-------------------------------------------------||
G||-------------------------------------------------||   x3
D||----3-----3-----3-----3-----3-----3-----3-----3--||
A||-1-----1-----1-----------------------------------||
E||-------------------1-----1-----1-----1-----1-----||


e||-------------------------------------------------||
B||-------------------------------------------------||
G||-------------------------------------------------||
D||----6-----6-----6-----6-----6-----6-----6-----6--||   x1
A||-4-----4-----4-----4-----4-----4-----4-----4-----||
E||-------------------------------------------------||
   
  Verse
e||-------------------------------------------------|
B||-------------------------------------------------|   
G||-------------------------------------------------|
D||----4-----4-----4-----4-----4-----4-----4-----4--|
A||-------------------------------------------------|
E||-2-----2-----2-----2-----2-----2-----2-----2-----|

e|--------------------------------------------------|
B|--------------------------------------------------|
G|--------------------------------------------------|
D|----3-----3-----3-----3-----3-----3-----3-----3---|
A|-1-----1-----1-----1-----1-----1-----1-----1------|
E|--------------------------------------------------|

e|--------------------------------------------------|
B|--------------------------------------------------|
G|--------------------------------------------------|
D|----3-----3-----3-----3-----3-----3-----3-----3---|
A|-1-----1-----1------------------------------------|
E|-------------------1-----1-----1-----1-----1------|

e|--------------------------------------------------|
B|--------------------------------------------------|
G|--------------------------------------------------|
D|----3-----3-----3-----3-----3-----3-----3-----3---|
A|-1-----1-----1------------------------------------|
E|-------------------1-----1-----1-----1-----1------|

e|-------------------------------------------------||
B|-------------------------------------------------||
G|-------------------------------------------------||
D|----6-----6-----6-----6-----6-----6-----6-----6--||   x1
A|-4-----4-----4-----4-----4-----4-----4-----4-----||
E|-------------------------------------------------||

Chorus:

Ebm xx1342
C#  x46664
B   x24442
F#  244322

        Ebm    C#    B    F# 
Welcome home.
Ebm    C#    B    F#

Outro
       Ebm         B        F#
All my nightmares escape my head,
        Ebm               B        F#
Bar the door please don’t let them in,
         Ebm      B       F#
You were never suppose to leave
       Ebm    B                F#
Now my head’s splitting at the seams
    B       F#      C#
And I don’t know if I can.

Here beneath my lungs I feel your thumbs press into my skin again.



************************************

| /   slide up
| \   slide down
| h   hammer-on
| p   pull-off
| ~   vibrato
| +   harmonic
| x   Mute note
| b   Bend
| pb  Pre-bend
| br  Bend release
| pbr Pre-bend release
| brb Bend release bend

************************************
            
Submit corrections

comments powered by Disqus
↑ Back to top | Radical Face Tabs for Welcome Home. Lyrics for acoustic guitar and electric guitar. Tablatures and chords are parodies/interpretations of the original songs. You may use it for private study, scholarship, research or language learning purposes only