» » »

Queens Of The Stone Age, Tension Head Tabs (ver.1)

Artists:  A B C D E F G H I J K L M N O P Q R S T U V W X Y Z # 

Tension Head Tabs (ver.1)

Queens Of The Stone Age Tabs
Rating:
0/5 (0 votes)
Tension Head lessons Tabs too difficult? Try these video lessons and learn fast
                Tuning - C F Bb Eb G C
this is my fave qotsa song and its pretty easy to figure out and play
intro:
---------------------|
---------------------|
---------------------|
---------------------|
-----7-6---5---------|
---0-----7---6-0-5---|

riff 1:
---12-12-12-12----12-12-12-12----12-12-12-12----12-12-12-12--12-14-15-17---|
---12-12-12-12----12-12-12-12----12-12-12-12----12-12-12-12--12-14-15-17---|
---10-10-10-10--0-10-10-10-10--0-10-10-10-10--0-10-10-10-10--10-12-13-15---|

riff 2:
-----12-12-12-12----12-12-12-12----9----12-12-12-12----12-12-12-14-15-17---|
-----12-12-12-12----12-12-12-12----9----12-12-12-12----12-12-12-14-15-17---|
---0-10-10-10-10--0-10-10-10-10--0-7--0-10-10-10-10--0-10-10-10-12-13-15---|

pre-chorus riff:
-----------------------------------------------------------|
-----------------------------------------------------------|
---12-12-12-9--12-12-12-9--12-12-12-9--12-12-12/14-15-17---|
---12-12-12-9--12-12-12-9--12-12-12-9--12-12-12/14-15-17---|
---10-10-10-7--10-10-10-7--10-10-10-7--10-10-10/12-13-15---|
-----------------------------------------------------------|

chorus: guitar 1 (right channel)
--17p15----------------17p15------------17p5---------------17p15-----------17--| 
--------15----17b--15--------15----17b-------15----17b--15-------15----17b-----| 
-----------14-------------------14--------------14------------------14---------| 

chorus: guitar 2 (left channel)
----------------------------------|
----------------------------------|
----------------------------------|
------------9--8--------5--9--8---|
-----6-7-6--9--8----6-7----9--8---|
---0--------7--6--0--------7--6---|

bridge:
---6h7-7-6h7-7-6h7-----------------------------------------------------|
-------------------2h3-3-2h3-3-2h3--4h5-5-4h5-5-4h5--2h3-3-2h3-3-2h3---|

bridge lead:
-----------------------------------------|
---17-------17----------------17---------|
------19-------19-19p17-19p17------------|
---------17----------------------15-17---|
-----------------------------------------|
-----------------------------------------|


riff 1 variation 1:
-----------------------|
-----------------------|
---11-11-11-12-12-12---|
---11-11-11-12-12-12---|
----9--9--9-10-10-10---|
-----------------------|

riff 1 variation 2 (at the end of the riff):
-----------------|
-----------------|
-----------------|
-----------------|
---10-12-13-12---|
-----------------|

riff 2 variation 1:
----------------------------------|
----------------------------------|
----------------------------------|
----------------------------------|
--0-10-10-10--10-10h12p10-10--7---|
----------------------------------|

pre-chorus 2 lead:
-------------------------------------------|
--------------------------------------17---|
---15---12---15---12---18---15---18--------|
-------------------------------------------|
-------------------------------------------|
-------------------------------------------|



intro riff 1x

lead:
-----------------------------------|
------------------------------17---|
---12--15--12--15--15--18--15------|
-----------------------------------|
-----------------------------------|
-----------------------------------|
sweet
            
Submit corrections

comments powered by Disqus
↑ Back to top | Queens Of The Stone Age Tabs for Tension Head. Lyrics for acoustic guitar and electric guitar. Tablatures and chords are parodies/interpretations of the original songs. You may use it for private study, scholarship, research or language learning purposes only