>
 >
Tangled Up In Plaid

Tangled Up In Plaid Bass Tabs

Queens Of The Stone Age - Tangled Up In Plaid chords, tabs, tablatures, lyrics

Guitar lessons | Add/correct | Request | Top 50 tabs Artists:  A B C D E F G H I J K L M N O P Q R S T U V W X Y Z 0-9

Tangled Up In Plaid Bass Tabs – Queens Of The Stone Age

CD, Sheet music, Poster

Do you like Tangled Up In Plaid? Share with your friends now
Bass TabsTabsTabs v2
                                                                #


This song is one of the best songs on the CD! This is my first song I ever
Listen for the timing it's fairly easy.


DROP-C TUNING (CFad) a = A# b = B#

Into ( part with no singing )
d|----------------------------------------------------------|
a|----------------------------------------------------------|
F|----------------------------------------------------------|
C|-0h7r--0h7\0--0h8r--0h8\0--0h7r--0h7\0--0h8r--12r---------|

Verse
d|----------------------------------------------------------|
a|---------------------------0/9r--0/9r\0-------------------|
F|----------------------------------------------------------|
C|-0h7r--0h7\0--0h8r--0h12\0---------------0h8r--0h8\0------|

d|----------------------------------------------------------|
a|---------------------------0/9r--0/9r\0--0/10r--0/10r\0---|
F|----------------------------------------------------------|
C|-0h7r--0h7\0--0h8r--0h8\0---------------------------------|

d|----------------------------------------------------------|
a|----------------------------------------------------------|
F|----------------------------------------------------------|
C|-0h7r--0h7\0--0h8r--0h8\0--0h7r--0h7\0--0h8r--12r-7h810p9-|

d|-----------------------------------------------------------|
a|-----------------------------------------------------------|
F|-----------------------------------------------------------|
C|-0h7r--0h7\0--0h8r--0h8\0--0h7r--0h7\0-8-8-8-/12-8-8-/12-7-|

d|----------------------------------------------------------|
a|---------------------------0/9r---------------------------|
F|----------------------------------------------------------|
C|-0h7r--0h7\0--0h8r--0h8\0--------0h7r---0h8r--0h8\0--/10--|

Chorus X2:
d|-------------------------------------------------------------------|
a|-------------------------------------------------------------------|
F|-------------------------------------------------------------------|
C|-10p8h10p8h10p8/12-10p8h10p8h10p8/12-8p6h8p6h8p6/12-8p6h8p6h8p6/12-|

d|------------------------------------------------------------------|
a|------------------------------------------------------------------|
F|------------------------------------------------------------------|
C|-5p3h5p3h5p3/12-5p3h5p3h5p3/12-8p6h8p6h8p6/12-8p6h8p6h8p6/12------|

d|-------------------------------------------------------------------|
a|-------------------------------------------------------------------|
F|-------------------------------------------------------------------|
C|-10p8h10p8h10p8/12-10p8h10p8h10p8/12-8p6h8p6h8p6/12-8p6h8p6h8p6/12-|

d|------------------------------------------------------------------|
a|------------------------------------------------------------------|
F|------------------------------------------------------------------|
C|-5p3h5p3h5p3/12-5p3h5p3h5p3/12-8p6h8p6h8p6/12-8p6h8p6/12r---------|


Verse 2
d|----------------------------------------------------------|
a|--------------------9\--0---/9----------------------------|
F|----------------------------------------------------------|
C|-0h7r--0h7\0--0h8r--------------0h7\0--0h8r--7h810p9-12---|

d|-----------------------------------------------------------|
a|--------------------------------0/9r\0---------------------|
F|-----------------------------------------------------------|
C|-0h7r--0h7\0--0h8r--0h8\0--0h7r--------8-8-8-/12-8-8-/12-7-|

d|----------------------------------------------------------|
a|-------0/9\0--0/10r--------------0/9\0--0/10r-------------|
F|----------------------------------------------------------|
C|-0h7r---------------0h8\0--0h7r---------------0h8\0--/12--|

Chorus

Guitar Solo backing
d|-------------------------------------------------------------------|
a|-------------------------------------------------------------------|
F|-------------------------------------------------------------------|
C|-10p8h10p8h10p8/12-10p8h10p8h10p8/12-8p6h8p6h8p6/12-8p6h8p6h8p6/12-|

d|------------------------------------------------------------------|
a|------------------------------------------------------------------|
F|------------------------------------------------------------------|
C|-5p3h5p3h5p3/12-5p3h5p3h5p3/12-8p6h8p6h8p6/12-8p6h8p6h8p6/12------|

d|------------------------------------------------------------------|
a|------------------------------------------------------------------|
F|------------------------------------------------------------------|
C|-5p3h5p3h5p3/12-5p3h5p3h5p3/12-8p6h8p6h8p6/12-8p6h8p6h8p6/12------|

d|------------------------------------------------------------------|
a|------------------------------------------------------------------|
F|------------------------------------------------------------------|
C|-5p3h5p3h5p3/12-5p3h5p3h5p3/12-8p6h8p6h8p6/12-8p6h8p6h8p6/12------|

d|------------------------------------------------------------------|
a|------------------------------------------------------------------|
F|------------------------------------------------------------------|
C|-5p3h5p3h5p3/12-5p3h5p3h5p3/12-8p6h8p6h8p6/12-8p6h8p6h8p6/12---7--|





Comments


Popular Queens Of The Stone Age tabs & chords
Misfit Love Bass Tabs
River In The Road Chords
Fairweather Friends 1 Tabs
Go With The Flow 4 Tabs
Go With The Flow 5 Tabs
I Wanna Make It Wit Chu 2 Tabs
In The Fade 1 Tabs
In The Fade 3 Tabs
Kalopsia 1 Tabs
Broken Box Ukulele


Song lyrics



↑ Back to top | Tablatures and chords are parodies/interpretations of the original songs. You may use it for private study, scholarship, research or language learning purposes only
© 2014 AZChords.com Contact us | Privacy policy | DMCA | Add/correct tabs | Request tabs | Top 50 tabs