» » »

Queens Of The Stone Age, Tangled Up In Plaid Tabs (ver.2)

Artists:  A B C D E F G H I J K L M N O P Q R S T U V W X Y Z # 

Tangled Up In Plaid Tabs (ver.2)

Queens Of The Stone Age Tabs
Rating:
0/5 (0 votes)
Tangled Up In Plaid lessons Tabs too difficult? Try these video lessons and learn fast
                This is possibly the best song on Lullabies to Paralyze. I'd say it's a toss up between
this and The Blood is Love. In C Tuning, and there's a lot of weird changes in the
rhythm. 

Intro 
Guitar I (this is actually a piano, which returns with the same part right before the 2nd chorus)

|-14-15-14-12-11-12-14-15-12-11-9-11-14-15-14-12-11-12-14-15-14-12-11-12-|
|------------------------------------------------------------------------|
|------------------------------------------------------------------------|
|------------------------------------------------------------------------|
|------------------------------------------------------------------------|
|------------------------------------------------------------------------|

Guitar II (high reverb with slight distortion)
|-14~---------12-14~---15-12~--------12-17~------19-14~---12-11-12--20~--|
|------------------------------------------------------------------------|
|------------------------------------------------------------------------|
|------------------------------------------------------------------------|
|------------------------------------------------------------------------|
|------------------------------------------------------------------------|

Guitar I Cont.
|-14-15-14-----|
|--------------|
|----------9~--|
|----------9~--|
|----------7~--|
|--------------|

Guitar II Cont.
|----------14~-|
|--------------|
|--------------|
|--------------|
|--------------|
|--------------|

Verse
Guitar I (medium distortion)
   G                         G sharp 
|-----------------------------------------------------|
|-----------------------------------------------------|
|-----------------------------------------------------|
|-----------------------------------------------------|
|-----------------------------------------------------|
|-/7-7^0-7-7^0-7-7^0h7^0-8--8^0-8^0-8--8--8--8^8^8^0--|
  G                     G sharp       C 
|------------------------------------------|
|------------------------------------------|
|-------------------------------------13~--|
|-------------------------------------14~--|
|-------------------------------------14~--|
|-7-7p0-7^0-7^0-7-0-7-0-8--8^0-8--8^0-12~--|

Guitar II fill
|------------------------------|
|------------------------------|
|-14--12p11/8~~~~-------9~~~~--|
|------------------------------|
|------------------------------|
|------------------------------|

Guitar I Verse
  I Slipped  Didn't Mean, Didn't Mean to Do it That 
|--------------------------------------------------|
|--------------------------------------------------|
|--------------------------------------------------|
|--------------------------------------------------|
|--------------------------------------------------|
|-7-7p0-7^0-7^0-7-0-7-0-8--8^0-8--8^0-8-^0-8p0-8p0-|

 Way  Well I Blew in on a Whim  Gone Tomorrow I'm Gone
|----------------------------------------------------|
|----------------------------------------------------|
|----------------------------------------------------|
|----------------------------------------------------|
|----------------------------------------------------|
|-7-7^0-7-7^0-7-7^0h7^0-8--8^0-8^0-8--8--8--8^8^8^0--|

Guitar II Lead
|-----------11-12--14--19~~~~~--|
|-------------------------------|
|-------------------------------|
|-------------------------------|
|-------------------------------|
|-------------------------------|

 Today      Oh Yeah             Oh Yeah 
|--------------------------------------------------|
|--------------------------------------------------|
|--------------------------------------------------|
|--------------------------------------------------|
|--------------------------------------------------|
|-7-7p0-7^0-7^0-7-0-7-0-8--8^0-8--8^0-8-^0-8p0-8p0-|

Guitar II Lead
|-----------------------------------------------------------|
|-----------------------------------------------------------|
|------------------------------------9^^-11^(harmonic)~~~~~-|
|-----------------------------------------------------------|
|-----------------------------------------------------------|
|-----------------------------------------------------------|

  Whoa-oohwhoa-oohwhoa-yeah                Hangin'
|--------------------------------------------------|
|--------------------------------------------------|
|--------------------------------------------------|
|--------------------------------------------------|
|--------------------------------------------------|
|-7-7p0-7^0-7^0-7-0-7-0-8--8^0-8--8^0-8-^0-8p0-8p0-|

Guitar II
|---------------------------------------14~~~~~~~~-|
|--------------------------------------------------|
|--------------------------------------------------|
|--------------------------------------------------|
|--------------------------------------------------|
|--------------------------------------------------|
  Low            Hangin' Low          Whoa-ooh-oh
|----------------------------------------------------|
|----------------------------------------------------|
|----------------------------------------------------|
|----------------------------------------------------|
|----------------------------------------------------|
|-7-7^0-7-7^0-7-7^0h7^0-8--8^0-8^0-8--8--8--8^8^8^0--|

Guitar II lead
|-----------------------------------------12~----15~-17~--12~-|
|-------------------------------------------------------------|
|-------------------------------------------------------------|
|-------------------------------------------------------------|
|-------------------------------------------------------------|
|-------------------------------------------------------------|
               Hangin' Low                  
|---------------------------------------|
|---------------------------------------|
|----------------------------------13~--|
|----------------------------------14~--|
|----------------------------------14~--|
|-7-7^0-7-7^0-7-7^0h7^0-8--8^0-8^0-12~--|

Both Guitars (Heavy Distortion)
|----------|
|----------|
|----------|
|-10--10---|
|-10--10---|
|-8p0-8p0--|
       Come Let's Play Along and  Let Each Other  
|--------------------------------------------------|
|--------------------------------------------------|
|--------------------------------------------------|
|-9-9-9-9-9-9-9-9-9-9-9-10-10--10-10--10---10--10--|
|-9-9-9-9-9-9-9-9-9-9-9-10-10--10-10--10---10--10--|
|-7-7p0-7^0-7^0-7-0-7-0-8--8^0-8--8^0-8-^0-8p0-8p0-|

 Lose A Win Would Cause an Alarm  Don't Matter to Me Don't Matter
|------------------------------------------------------------|
|----------------------------------13-13-13-13-13-13-13-13---|
|----------------------------------9--9--9--9--9--9--9--9----|
|-9-9-9-9-9-9-9-9-9-9-9-10-10--10--10-10-10-10-10-10-10-10---|
|-9-9-9-9-9-9-9-9-9-9-9-10-10--10--10-10-10-10-10-10-10-10---|
|-7-7^0-7-7^0-7-7^0h7^0-8--8^0-8---8--8--8--8--8--8--8--8----|

 To You      Oh Yeah    Oh Yeah
|--------------------------------------------------|
|--------------------------------------------------|
|--------------------------------------------------|
|-9-9-9-9-9-9-9-9-9-9-9-10-10--10-10--10---10--10--|
|-9-9-9-9-9-9-9-9-9-9-9-10-10--10-10--10---10--10--|
|-7-7p0-7^0-7^0-7-0-7-0-8--8^0-8--8^0-8-^0-8p0-8p0-|

  Whoa-oohwhoa-oohwhoa-yeah
|----------------------------------------------|
|----------------------------------------------|
|----------------------------------------------|
|-9-9-9-9-9-9-9-9-9-9-9-10-10--10-10--10---10--|
|-9-9-9-9-9-9-9-9-9-9-9-10-10--10-10--10---10--|
|-7-7p0-7^0-7^0-7-0-7-0-8--8^0-8--8^0-8-^0-8p0-|

Chorus (Heavy Distortion)

    A sharp            C  A sharp            C                       
                       I Could Keep You All For
|-----------------------------------------------|
|-----------------------------------------------|
|-----------------------------------------------|
|-3/12p10-12p10-12p10-/14-12p10-12p10-12p10-/14-|
|-3/12p10-12p10-12p10-/14-12p10-12p10-12p10-/14-|
|-1/10-10-10-10-10-10-/12-10-10-10-10-10-10-/12-|
 
  G sharp         C G sharp          C 
  Myself             I Know You Gotta Be
|---------------------------------------|
|---------------------------------------|
|---------------------------------------|
|-10p8-10p8-10p8-/14-10p8-10p8-10p8-/14-|
|-10p8-10p8-10p8-/14-10p8-10p8-10p8-/14-|
|-8--8-8--8-8--8-/12-8--8-8--8-8--8-/12-|

  F          C   F      B     G sharp         C  G sharp         C    
  Free                  So Free Yourself      
|--------------------------------------------------------------------|
|--------------------------------------------------------------------|
|--------------------------------------------------------------------|
|-7-7-7-7-7--14--7-7-7-9-9-9--10p8-10p8-10p8-/14-10p8-10p8-10p8-/14--|
|-7-7-7-7-7--14--7-7-7-9-9-9--10p8-10p8-10p8-/14-10p8-10p8-10p8-/14--|
|-5-5-5-5-5--12--5-5-5-7-7-7--8--8-8--8-8--8-/12-8--8-8--8--8-8-/12--| 2x

Verse II
                  Hangin' Low           Ooooohoh
|------------------------------------------------------|
|------------------------------------------------------|
|------------------------------------------------------|
|------------------------------------------------------|
|------------------------------------------------------|
|-1/7-7^0-7-7^0-7-7^0h7^0-8--8^0-8^0-8--8--8--8^8^8^0--|


 Hangin' Low
|----------------------------------------------------|
|----------------------------------------------------|
|----------------------------------------------------|
|------------------------------------------------10\-|
|------------------------------------------------10\-|
|-7-7p0-7^0-7^0-7-0-7-0-8--8^0-8--8^0-0-7-0-12-0--8\-|

Lead
|------------------------------------------------------------|
|------------------------------------------------------------|
|-------------------------------------------------14^/16~~~--|
|------------------------------------------------------------|
|------------------------------------------------------------|
|------------------------------------------------------------|
         Self-Inflicted Wound Your Gift Impeccable Aim 
|--------------------------------------------------|
|--------------------------------------------------|
|--------------------------------------------------|
|-9-9-9-9-9-9-9-9-9-9-9-10-10--10-10--10---10--10--|
|-9-9-9-9-9-9-9-9-9-9-9-10-10--10-10--10---10--10--|
|-7-7p0-7^0-7^0-7-0-7-0-8--8^0-8--8^0-8-^0-8p0-8p0-|

 Can Really Clear a Room, All the Bodies Pile Up in Your Way
|--------------------------------------------------------|
|---------------------------------------------------11~--|
|-----------------------9---11--12--11--9---11--12-------|
|-9-9-9-9-9-9-9-9-9-9-9-10--10--10--10--10--10--10--10---|
|-9-9-9-9-9-9-9-9-9-9-9-10--10--10--10--10--10--10--10---|
|-7-7^0-7-7^0-7-7^0h7^0-8---8---8---8---8---8---8---8----|

 Oh Yeah (It Hurts) Whoah yeah (Well it Must) Whoa Yeah
|--------------------------------------------------|
|--------------------------------------------------|
|--------------------------------------------------|
|-9-9-9-9-9-9-9-9-9-9-9-10-10--10-10--10---10--10--|
|-9-9-9-9-9-9-9-9-9-9-9-10-10--10-10--10---10--10--|
|-7-7p0-7^0-7^0-7-0-7-0-8--8^0-8--8^0-8-^0-8p0-8p0-|

Lead
|--------------------------------------------------------|
|--------------------------------------------------------|
|-7^/9^~~~~~~~~~~~~~~~8^/9^~~~~~~~~~~9^/11^~~~~~~~~~~~~--|
|--------------------------------------------------------|
|--------------------------------------------------------|
|--------------------------------------------------------|

Chorus II
Chorus (Heavy Distortion)

    A sharp            C  A sharp            C                       
                       I Could Keep You All For
|-----------------------------------------------|
|-----------------------------------------------|
|-----------------------------------------------|
|-3/12p10-12p10-12p10-/14-12p10-12p10-12p10-/14-|
|-3/12p10-12p10-12p10-/14-12p10-12p10-12p10-/14-|
|-1/10-10-10-10-10-10-/12-10-10-10-10-10-10-/12-|
 
  G sharp         C G sharp          C 
  Myself             I Know You Gotta Be
|---------------------------------------|
|---------------------------------------|
|---------------------------------------|
|-10p8-10p8-10p8-/14-10p8-10p8-10p8-/14-|
|-10p8-10p8-10p8-/14-10p8-10p8-10p8-/14-|
|-8--8-8--8-8--8-/12-8--8-8--8-8--8-/12-|

  F          C   F      G     G sharp         C  G sharp         C    
  Free                  So Free Yourself ("To Kill Yourself" 2nd time)     
|--------------------------------------------------------------------|
|--------------------------------------------------------------------|
|--------------------------------------------------------------------|
|-7-7-7-7-7--14--7-7-7-9-9-9--10p8-10p8-10p8-/14-10p8-10p8-10p8-/14--|
|-7-7-7-7-7--14--7-7-7-9-9-9--10p8-10p8-10p8-/14-10p8-10p8-10p8-/14--|
|-5-5-5-5-5--12--5-5-5-7-7-7--8--8-8--8-8--8-/12-8--8-8--8--8-8-/12--| 2x

Solos (two leads over bass driven chorus rhythm) not so much dueling,
more walzting leads

Guitar I (the end notes are tremloe picked) 
|----------------------------------------------------------|
|----------------------------------------------------------|
|-11^(12)-11~~~-11^(12)-11~~~-11h12p9~~~-9/12\9~~~---------|
|----------------------------------------------------------|
|----------------------------------------------------------|
|----------------------------------------------------------|

|----------------------------------------|
|----------------------------------------|
|-12/6~~~~--12/6~~~~--5~~~~-5/12\5~~~~~--|
|----------------------------------------|
|----------------------------------------|
|----------------------------------------|
After This point Guitar I plays chorus rhythm while other guitar pushes out
more lead

Guitar II Lead 

|-14^(15)-14~~-14^(15)-14~~~-14h15p14/12~~~--12/15\12~~~~--|
|----------------------------------------------------------|
|----------------------------------------------------------|
|----------------------------------------------------------|
|----------------------------------------------------------|
|----------------------------------------------------------|

|-15\9~~~~--15\9~~~~------------------------------|
|--------------------10h12-12^(13)~~~-12-10/17~~~-|
|-------------------------------------------------|
|-------------------------------------------------|
|-------------------------------------------------|
|-------------------------------------------------|

*Guitar I goes back to rhythm 
|----------------------------------------------------------------------|
|----------------------------------------------------------------------|
|----------------------------------------------------------------------|
|-7-7-7-7-7--14--7-7-7-7-7--14--10p8-10p8-10p8-/14-10p8-10p8-10p8-/14--|
|-7-7-7-7-7--14--7-7-7-7-7--14--10p8-10p8-10p8-/14-10p8-10p8-10p8-/14--|
|-5-5-5-5-5--12--5-5-5-5-5--12--8--8-8--8-8--8-/12-8--8-8--8--8-8-/12--| 3x

Guitar II
|-------15^-15^/9~~-15/9~~~--17h19-19^(20)-19-17-22^(24)-22^(24)~~~--|
|-15h17--------------------------------------------------------------|
|--------------------------------------------------------------------|
|--------------------------------------------------------------------|
|--------------------------------------------------------------------|
|--------------------------------------------------------------------|

|-\21~~~--21\12~~~--12/17~-15~-19~-12~--|
|---------------------------------------|
|---------------------------------------|
|---------------------------------------|
|---------------------------------------|
|---------------------------------------|

|-12h15p12/9~~~-12h15p12/8~~~-------------------------------|
|------------------------------10h12-12^(13)-12-10/17~~~~~--|
|-----------------------------------------------------------|
|-----------------------------------------------------------|
|-----------------------------------------------------------|
|-----------------------------------------------------------|

Guitar II 
|------|
|------|
|------|
|-3/9--|
|-3/9--|
|-1/7--|

Enjoy, this is a hell of a song
            
Submit corrections

comments powered by Disqus
↑ Back to top | Queens Of The Stone Age Tabs for Tangled Up In Plaid. Lyrics for acoustic guitar and electric guitar. Tablatures and chords are parodies/interpretations of the original songs. You may use it for private study, scholarship, research or language learning purposes only