» » »

Rickshaw Bass tabs (ver.1)

Artists:  A B C D E F G H I J K L M N O P Q R S T U V W X Y Z # 

Rickshaw Bass tabs (ver.1)

Queens Of The Stone Age
Rating:
0/5 (0 votes)

Hard to play? Try these video lessons and learn fast.
                Tuning: C-F-Bb-Eb
Notes: - One of the best Desert Sessions songs as covered by QOTSA
       - They played it as it is on the Desert Sessions record
       - These are just the riffs, figure out where to play them on your own
~ - Let Ring
h - Hammer-On
p - Pull-Off
\ - Slide Down
/ - Slide Up


Verse:
Eb|-------------------------------------/11-9---11-|
Bb|------------------------------------------------|
F |-------------------------7-7-7-7-7-7------------|
C |-4-4-4-4-4-4-7-7-7-7-7-7------------------------|


Chorus:
Eb|----------------------------------------------|
Bb|----------------------------------------------|
F |-------11--11-11-11-11-11/14-7-7-7-7-7-7-7-7--|
C |-9---9----------------------------------------|
            
Hard to play? Try these video lessons and learn fast. | Correct




comments powered by Disqus
↑ Back to top | Tablatures and chords are parodies/interpretations of the original songs. You may use it for private study, scholarship, research or language learning purposes only