» » »

Queens Of The Stone Age, Regular John Tabs (ver.3)

Artists:  A B C D E F G H I J K L M N O P Q R S T U V W X Y Z # 

Regular John Tabs (ver.3)

Queens Of The Stone Age Tabs
 Rating:
4/5 (4 votes)
Regular John lessons Tabs too difficult? Try these video lessons and learn fast
1
                Queens of the Stone Age - Regular John

******************
*  ^  - strech   *
*  () - harmony  *
*  /  - slide    *
******************

The song goes in this order:
-inro
-verse connector
-verse A
-chorus 1
-verse connector
-verse A
-chorus 2
-bridge
-verse B
-chorus 3
_____________________________________________________________________________________

INTRO:

C5
5-5-5-5-5-5-5-5-5-5-5-5-5-5-5-5-5-5-5-5-5-5-5-5-5-5-5-5-5-5-5-5-
5-5-5-5-5-5-5-5-5-5-5-5-5-5-5-5-5-5-5-5-5-5-5-5-5-5-5-5-5-5-5-5-
3-3-3-3-3-3-3-3-3-3-3-3-3-3-3-3-3-3-3-3-3-3-3-3-3-3-3-3-3-3-3-3-

*play 5 times
 violin comes in at the 2nd time

____________________
VERSE:

C5
5-5-5-5-5-5-5-5-5-5-5-5-5-5-5-5-5-5-5-5-5-5-5-5-5-5-5-5-5-5-5-5-5-
5-5-5-5-5-5-5-5-5-5-5-5-5-5-5-5-5-5-5-5-5-5-5-5-5-5-5-5-5-5-5-5-5-
3-3-3-3-3-3-3-3-3-3-3-3-3-3-3-3-3-3-3-3-3-3-3-3-3-3-3-3-3-3-3-3-3-

F5  G5  C#5     Bb5
------------------------------
------------------------------
--------6-------3-3-3-3-3-3-3-
3---5---6---6---3-3-3-3-3-3-3-
3---5---4---6---1-1-1-1-1-1-1-
1---3-------4-----------------



*VERSE A - play 4 times
*verse B - play 1 time

____________________
CHORUS:

Chorus Rythem-

Eb5	        Bb5   C5
------------------------
------------------------
8-8-8-8-8-8-8-8-------5-
8-8-8-8-8-8-8-8-8-8-8-5-
6-6-6-6-6-6-6-6-8-8-8-3-
----------------6-6-6---


*A - play 3 times
 B - play 7 times


and then

Eb5 C5
------
------
8---5-
8---5-
6---3-
------


Chorus Lead-

A-

---------------------------------3-----3-----3-----------
-----------------------------6^8---6^8---6^8---6^8^6~4---
--------3-5-5^7^5~3---3-5-3----------------------------4-
----3-5-------------5------------------------------------
3/6------------------------------------------------------
---------------------------------------------------------

B-

--------------------------------------------------
--------------------------------------------------
-----------------------------------------------10-
--------------------------------------------------
11^13^11-11^13^11-11^13^11-11^13^11-11^13^11-8----
8--------8--------8--------8--------8-------------



Chorus 1-
	Rythem Guitar - Chorus Rythem A
	Lead guitar -  Chorus Lead A from the 2nd time


Chorus 2-
	Rythem Guitar - Chorus Rythem A
	Lead guitar -  Chorus Lead B (twice) from the 2nd time


Chorus 3-
        Rythem Guitar - Chorus Rythem B
        Lead guitar -  Chorus Lead A from the 3rd time and
                       then Chorus Lead B (3 times) from the 5th time


____________________
verses connector:

rythem goes-

C5                              D5
5-5-5-5-5-5-5-5-5-5-5-5-5-5-5-5-7-7-7-7-7-7-7-7-7-7-7-7-7-7-7-7-
5-5-5-5-5-5-5-5-5-5-5-5-5-5-5-5-7-7-7-7-7-7-7-7-7-7-7-7-7-7-7-7-
3-3-3-3-3-3-3-3-3-3-3-3-3-3-3-3-5-5-5-5-5-5-5-5-5-5-5-5-5-5-5-5-


while lead goes-

--------------------------
--------------------------
--------------------------
3-3-3-6-6-6---3-3-3-5-5-5-
--------------------------
--------------------------

*4 times

and then-

C5
5-5-5-5-5-5-5-5-5-5-5-5-5-5-5-5-5-5-5-5-5-5-5-5-5-5-5-5-5-5-5-5-
5-5-5-5-5-5-5-5-5-5-5-5-5-5-5-5-5-5-5-5-5-5-5-5-5-5-5-5-5-5-5-5-
3-3-3-3-3-3-3-3-3-3-3-3-3-3-3-3-3-3-3-3-3-3-3-3-3-3-3-3-3-3-3-3-
____________________
bridge:


Rythem Guitar-

C5                              D5
5-5---5-5-5---5-5-5---5-5-5---5-7-7---7-7-7---7-7-7---7-7-7---8-
5-5---5-5-5---5-5-5---5-5-5---5-7-7---7-7-7---7-7-7---7-7-7---8-
3-3---3-3-3---3-3-3---3-3-3---3-5-5---5-5-5---5-5-5---5-5-5---6-

*play 6 times (violin enters at the D5 in the 3rd time)


Lead Guitar-


(8)-----(8)-----(8)-----(8)-----(8)-----(8)-----(8)-----(8)----
----(5)-----(5)-----(5)-----(5)-----(5)-----(5)-----(5)-----(5)

*play only on the C5


and then rythem goes

C5
5-5-5-5-5-5-5-5-5-5-5-5-5-5-5-5-5-5-5-5-5-5-5-5-5-5-5-5-5-5-5-5-
5-5-5-5-5-5-5-5-5-5-5-5-5-5-5-5-5-5-5-5-5-5-5-5-5-5-5-5-5-5-5-5-
3-3-3-3-3-3-3-3-3-3-3-3-3-3-3-3-3-3-3-3-3-3-3-3-3-3-3-3-3-3-3-3-


_____________________________________________________________________________________

Queens of the Stone Age
Regular John
Queens of the Stone Age

_____________________________________________________________________________________
            
Submit corrections

comments powered by Disqus
↑ Back to top | Queens Of The Stone Age Tabs for Regular John. Lyrics for acoustic guitar and electric guitar. 1 Tablatures and chords are parodies/interpretations of the original songs. You may use it for private study, scholarship, research or language learning purposes only