» » »

Queens Of The Stone Age, Ode To Clarissa Tabs (ver.1)

Artists:  A B C D E F G H I J K L M N O P Q R S T U V W X Y Z # 

Ode To Clarissa Tabs (ver.1)

Queens Of The Stone Age Tabs
Rating:
0/5 (0 votes)
Hard to play? Try these video lessons and learn fast.
                Ode To Clarissa by Queens of the Stone Age

^ - bend (not sure if half or full)
r - release bend
p - pull off

intro
e|---------------
b|---------------
g|---------------
d|--5----5-8-10--
a|--5----5-8-10--
E|--3----3-6--8--

intro solo (2X)
e|-------------------------------------
b|-----------8^r-----------------------
g|--7-7--10------10-7-7----7--10^rp7---
d|----------------------10-------------
a|-------------------------------------
E|-------------------------------------

verses
e|------------------------------
b|------------------------------
g|------------------------------
d|--5-5--8-8--5-5--3-3--8-8-3-3-
a|--5-5--8-8--5-5--3-3--8-8-3-3-
E|--3-3--6-6--3-3--1-1--6-6-1-1-

1st bridge
e|-------
b|-------
g|-------
d|---7---
a|---7---
E|---5---

2nd bridge
e|-----------------
b|-----------------
g|-----------------
d|--7-----5-7-8----
a|--7-----5-7-8----
E|--5-----3-5-6----

chorus
e|---------------------------------
b|---------------------------------
g|---------------------------------
d|--5---8-8--5-5-8-8-5-5--5-8-10---
a|--5---8-8--5-5-8-8-5-5--5-8-10---
E|--3---6-6--3-3-6-6-3-3--3-6--8---

post-chorus
e|-----------------
b|-----------------
g|-----------------
d|--8-----5-8-10---
a|--8-----5-8-10---
E|--6-----3-6--8---

play everything again in the same order


i'm too lazy to do the counts, so u just have to listen to the song to know. this is my first ever full tab. but i welcome all critics - good or bad - because i wanna improve as a guitarist. just mail me. btw, queens of the stone age is the definition of rock n roll in the new century!
            

comments powered by Disqus
↑ Back to top | Queens Of The Stone Age Tabs for Ode To Clarissa. Lyrics for acoustic guitar and electric guitar. Tablatures and chords are parodies/interpretations of the original songs. You may use it for private study, scholarship, research or language learning purposes only