>
 >
I Think I Lost My Headache 1

I Think I Lost My Headache 1 Guitar Tabs

Queens Of The Stone Age - I Think I Lost My Headache 1 chords, tabs, tablatures, lyrics

Guitar lessons | Add/correct | Request | Top 50 tabs Artists:  A B C D E F G H I J K L M N O P Q R S T U V W X Y Z 0-9

I Think I Lost My Headache 1 Guitar Tabs – Queens Of The Stone Age

CD, Sheet music, Poster

Do you like I Think I Lost My Headache 1? Share with your friends now
Bass TabsBass Tabs v2TabsTabs v2Tabs v3Tabs v4
Tuning(low-to-high): (down 2 full steps) C F Bb Eb G c
Key: / \ = slide
      h  = hammer-on
      p  = pull-off
      b  = bend
      r  = release
      *  = natural harmonic
     ( ) = ghost note
      x  = mute note
      ~  = vibrato
      ^  = let ring
      #  = stompbox on/off

Gtr. 1 is Distorted
Gtr. 2 is slightly Overdriven
Gtr. 3 is Distorted w/ Reverb & slide

Intro:

 Gtr. 1
|-#overdrive-----------------------------------------------------------|
|----------------------------------------------------------------------|
|----------8-------6---------------6-------5---------------2-----------|
|------7---------------7-------5---------------7-------3---------------| 
|--0-----------0-----------0-----------0-----------0-------------------|
|----------------------------------------------------------------------|

 Gtr. 1
|----------------------------------------------------------------------|
|----------------------------------------------------------------------|
|----------8-------6---------------6-------5---------------2-----------|
|------7---------------7-------5---------------7-------3---------------| 
|--0-----------0-----------0-----------0-----------0-------------------|
|----------------------------------------------------------------------|

 Gtr. 1
|----------------------------------------------------------------------|
|----------------------------------------------------------------------|
|----------8-------6---------------6-------5---------------2-----------|
|------7---------------7-------5---------------7-------3---------------| 
|--0-----------0-----------0-----------0-----------0-------------------|
|----------------------------------------------------------------------|
|Gtr. 2								       |
|---16b----------------------------------------------------------------|
|-------16^-----------------------------------------14b----------------|
|-------------------------------------------------------14-------------|
|----------------------------------------------------------15----------|
|----------------------------------------------------------------------|
|----------------------------------------------------------------------|

 Gtr. 1
|----------------------------------------------------------------------|
|----------------------------------------------------------------------|
|----------8-------6---------------6-------5---------------2-----------|
|------7---------------7-------5---------------7-------3---------------| 
|--0-----------0-----------0-----------0-----------0-------------------|
|----------------------------------------------------------------------|
|Gtr. 2							               |
|--------------------------------------------------14b-----------------|
|------------------------------------------------------14^-------------|
|----------------------------------------------------------------------|
|--14^-----------------------------------------------------------------|
|----------------------------------------------------------------------|
|----------------------------------------------------------------------|

 Gtr. 1
|----------------------------------------------------------------------|
|----------------------------------------------------------------------|
|----------8-------6---------------6-------5---------------2-----------|
|------7---------------7-------5---------------7-------3---------------| 
|--0-----------0-----------0-----------0-----------0-------------------|
|----------------------------------------------------------------------|
|Gtr. 2								       |
|--------------------------16b-----------------------------------------|
|------------------------------16^-------------------------14----------|
|--14^-----------------------------------------------------------------|
|----------------------------------------------------------------------|
|----------------------------------------------------------------------|
|----------------------------------------------------------------------|
|Gtr. 3								       |
|----------------------------------------------------------------------|
|-------10//16------14\\10-------8///14-------13\\10----6///10---------|
|----------------------------------------------------------------------|
|----------------------------------------------------------------------|
|----------------------------------------------------------------------|
|----------------------------------------------------------------------|

 Gtr. 1
|----------------------------------------------------------------------|
|----------------------------------------------------------------------|
|----------8-------6---------------6-------5---------------2-----------|
|------7---------------7-------5---------------7-------3---------------| 
|--0-----------0-----------0-----------0-----------0-------------------|
|----------------------------------------------------------------------|
|Gtr. 2								       |
|--------------------------------------------------14b-----14----------|
|-------------------------------------------------(14b)14r-------------|
|--14^-----------------------------------------------------------------|
|----------------------------------------------------------------------|
|----------------------------------------------------------------------|
|----------------------------------------------------------------------|
|Gtr. 3								       |
|----------------------------------------------------------------------|
|-------10//16------14\\10-------8///14-------13\\10----6///10---------|
|----------------------------------------------------------------------|
|----------------------------------------------------------------------|
|----------------------------------------------------------------------|
|----------------------------------------------------------------------|

 Gtr. 1
|----------------------------------------------------------------------|
|----------------------------------------------------------------------|
|----------8-------6---------------6-------5---------------2-----------|
|------7---------------7-------5---------------7-------3---------------| 
|--0-----------0-----------0-----------0-----------0-------------------|
|----------------------------------------------------------------------|
|Gtr. 2								       |
|--------------------------------------------------16b-----------------|
|--14^--------------------------------------------(16b)16r-------------|
|----------------------------------------------------------------------|
|----------------------------------------------------------------------|
|----------------------------------------------------------------------|
|----------------------------------------------------------------------|
|Gtr. 3								       |
|----------------------------------------------------------------------|
|-------10//16------14\\10-------8///14-------13\\10----6///10---------|
|----------------------------------------------------------------------|
|----------------------------------------------------------------------|
|----------------------------------------------------------------------|
|----------------------------------------------------------------------|

 Gtr. 1
|----------------------------------------------------------------------|
|----------------------------------------------------------------------|
|----------8-------6---------------6-------5---------------------------|
|------7---------------7-------5---------------7-----------------------| 
|--0-----------0-----------0-----------0-------------------------------|
|----------------------------------------------------------------------|
|Gtr. 2								       |
|----------------------------------------------------------------------|
|--16b---------b-----------------------16------------------------------|
|----------------------------------------------------------------------|
|----------------------------------------------------------------------|
|----------------------------------------------------------------------|
|----------------------------------------------------------------------|
|Gtr. 3								       |
|----------------------------------------------------------------------|
|-------10//16------14\\10-------8///14-------10\\\8^------------------|
|----------------------------------------------------------------------|
|----------------------------------------------------------------------|
|----------------------------------------------------------------------|
|----------------------------------------------------------------------|

 Gtr.1
|----------------------------------------------------------------------|
|-(8^<Gtr. 3)----------------------------------------------------------|
|----------------------------------------------------------------------|
|--2-----2--2----2----2----2--3/6-6\-2-----2--2----2----2----2--3/6-6\-|
|--0-----0--0----0----0----0--1/4-4\-0-----0--0----0----0----0--1/4-4\-|
|----------------------------------------------------------------------|

 Gtr.1 & 2
|----------------------------------------------------------------------|
|----------------------------------------------------------------------|
|----------------------------------------------------------------------|
|--2-----2--2-----2----2----2--3-----2-----2--2-----2----2----2--3-----|
|--0-----0--0-----0----0----0--1-----0-----0--0-----0----0----0--1-----|
|----------------------------------------------------------------------|
|Gtr. 3								       |
|----------------------------------------------------------------------|
|--14^------------------------14/18\-14^------------------------14/18\-|
|----------------------------------------------------------------------|
|----------------------------------------------------------------------|
|----------------------------------------------------------------------|
|----------------------------------------------------------------------|


Verse:

 Gtr.1 & 2
|----------------------------------------------------------------------|
|----------------------------------------------------------------------|
|----------------------------------------------------------------------|
|--2-----2-2-2----2----2----2--3-----2-----2--2-----2----2----2--3-----|
|--0-----0-0-0----0----0----0--1-----0-----0--0-----0----0----0--1-----|
|----------------------------------------------------------------------|
|Gtr. 3								       |
|----------------------------------------------------------------------|
|--14^------------------------14/18\-14^------------------------14/18\-|
|----------------------------------------------------------------------|
|----------------------------------------------------------------------|
|----------------------------------------------------------------------|
|----------------------------------------------------------------------|

 Gtr.1 & 2
|----------------------------------------------------------------------|
|----------------------------------------------------------------------|
|----------------------------------------------------------------------|
|--2-----2--2-----2----2----2--3-3---2-----2--2-----2----2----2--3/6---|
|--0-----0--0-----0----0----0--1-1---0-----0--0-----0----0----0--1/4---|
|----------------------------------------------------------------------|
|Gtr. 3								       |
|----------------------------------------------------------------------|
|--14^------------------------14/18\-14^------------------------14/18\-|
|----------------------------------------------------------------------|
|----------------------------------------------------------------------|
|----------------------------------------------------------------------|
|----------------------------------------------------------------------|

 Gtr.1 & 2
|----------------------------------------------------------------------|
|----------------------------------------------------------------------|
|----------------------------------------------------------------------|
|--2-----2-2-2----2----2----2--3-/6\-2-----2--2-----2----2-3-----------|
|--0-----0-0-0----0----0----0--1-/4\-0-----0--0-----0----0-1-----------|
|----------------------------------------------------------------------|
|Gtr. 3								       |
|----------------------------------------------------------------------|
|--14^------------------------14/18\-14^-----------------(14\)---------|
|----------------------------------------------------------------------|
|----------------------------------------------------------------------|
|----------------------------------------------------------------------|
|----------------------------------------------------------------------|


Chorus 1 (let all notes ring):
 
 Gtr. 2
|----------------------------------------------------------------------|
|---------10-----10--9-----9--8--------------10-----10--9-----9--8-----|
|-------------9---------9-----9------------------9---------9-----9-----|
|------7----------------------------------7----------------------------|
|---0----------------------------------0-------------------------------|
|----------------------------------------------------------------------|

 Gtr. 2
|----------------------------------------------------------------------|
|--------10-----10--9-----9--8--------------10-----10--9-----9--10-----|
|------------9---------9-----9------------------9---------9-----10-----|
|-----7----------------------------------7-----------------------------|
|--0----------------------------------0--------------------------------|
|----------------------------------------------------------------------|

 Gtr. 1
|----------------------------------------------------------------------|
|----------------------------------------------------------------------|
|----------------------------------------------------------------------|
|--2----2--2----2---2---2-3-3/6~~~-2----2--2----2---2---2--------------|
|--0----0--0----0---0---0-1-1/4~~~-0----0--0----0---0---0--5-4---3-4-3-|
|--------------------------------------------------------------5-------|
|Gtr. 2								       |
|----------------------------------------------------------------------|
|----------------------------------------------------------------------|
|----------------------------------------------------------------------|
|----------------------------------------------------------7-6---5-6-5-|
|----------------------------------------------------------5-4-7-3-4-3-|
|--------------------------------------------------------------5-------|


Verse 2:

 Gtr.1 & 2
|----------------------------------------------------------------------|
|----------------------------------------------------------------------|
|----------------------------------------------------------------------|
|--2-----2-2-2----2----2----2--3-----2-----2--2-----2----2----2--3/6---|
|--0-----0-0-0----0----0----0--1-----0-----0--0-----0----0----0--1/4---|
|----------------------------------------------------------------------|
|Gtr. 3								       |
|----------------------------------------------------------------------|
|--14^------------------------14/18\-14^------------------------14/18\-|
|----------------------------------------------------------------------|
|----------------------------------------------------------------------|
|----------------------------------------------------------------------|
|----------------------------------------------------------------------|

 Gtr.1 & 2
|----------------------------------------------------------------------|
|----------------------------------------------------------------------|
|--------------------------------------------------------------2---2---|
|--2-----2-2-2----2----2----2--3/6\--2----2-2-2-----2----2---2-2-2-2-2-|
|--0-----0-0-0----0----0----0--1/4\--0----0-0-0-----0----0-------------|
|----------------------------------------------------------------------|
|Gtr. 3								       |
|----------------------------------------------------------------------|
|--14^------------------------14/18\-14^------------------------14/18\-|
|----------------------------------------------------------------------|
|----------------------------------------------------------------------|
|----------------------------------------------------------------------|
|----------------------------------------------------------------------|

 Gtr.1 & 2
|----------------------------------------------------------------------|
|----------------------------------------------------------------------|
|----------------------------------------------------------------------|
|--2-----2-2-2----2----2----2--3/6\--2-----2--2-----2----2----2--3/6\--|
|--0-----0-0-0----0----0----0--1/4\--0-----0--0-----0----0----0--1/4\--|
|----------------------------------------------------------------------|
|Gtr. 3								       |
|----------------------------------------------------------------------|
|--14^------------------------14/18\-14^------------------------14/18\-|
|----------------------------------------------------------------------|
|----------------------------------------------------------------------|
|----------------------------------------------------------------------|
|----------------------------------------------------------------------|

 Gtr.1 & 2
|----------------------------------------------------------------------|
|----------------------------------------------------------------------|
|----------------------------------------------------------------------|
|--2----2--2----2---2---2-3-3/6----2----2--2----2---2---2--7-6---5-6-5-|
|--0----0--0----0---0---0-1-1/4----0----0--0----0---0---0--5-4-7-3-4-3-|
|--------------------------------------------------------------5-------|
|Gtr. 3								       |
|----------------------------------------------------------------------|
|--14^------------------------14/18\-14^-------------------10/---------|
|----------------------------------------------------------------------|
|----------------------------------------------------------------------|
|----------------------------------------------------------------------|
|----------------------------------------------------------------------|

 Gtr.1 & 2
|----------------------------------------------------------------------|
|----------------------------------------------------------------------|
|----------------------------------------------------------------------|
|--2-----2-2-2----2----2----2--3/6---2-----2--2-----2----2----2--3/6\--|
|--0-----0-0-0----0----0----0--1/4---0-----0--0-----0----0----0--1/4\--|
|----------------------------------------------------------------------|
|Gtr. 3								       |
|----------------------------------------------------------------------|
|--14^------------------------14/18\-14^------------------------14/18\-|
|----------------------------------------------------------------------|
|----------------------------------------------------------------------|
|----------------------------------------------------------------------|
|----------------------------------------------------------------------|

 Gtr.1 & 2
|----------------------------------------------------------------------|
|----------------------------------------------------------------------|
|----------------------------------------------------------------------|
|--2-----2-2-2----2----2----2--3-/6\-2-----2--2-----2----2-3-----------|
|--0-----0-0-0----0----0----0--1-/4\-0-----0--0-----0----0-1-----------|
|----------------------------------------------------------------------|
|Gtr. 3								       |
|----------------------------------------------------------------------|
|--14^------------------------14/18\-14^-----------------(14\)---------|
|----------------------------------------------------------------------|
|----------------------------------------------------------------------|
|----------------------------------------------------------------------|
|----------------------------------------------------------------------|


Chorus 2 (let all notes ring):
 
 Gtr. 2
|----------------------------------------------------------------------|
|---------10-----10--9-----9--8--------------10-----10--9-----9--8-----|
|-------------9---------9-----9------------------9---------9-----9-----|
|------7----------------------------------7----------------------------|
|---0----------------------------------0-------------------------------|
|----------------------------------------------------------------------|

 Gtr. 2
|----------------------------------------------------------------------|
|--------10-----10--9-----9--8--------------10-----10--9-----9--10-----|
|------------9---------9-----9------------------9---------9-----10-----|
|-----7----------------------------------7-----------------------------|
|--0----------------------------------0--------------------------------|
|----------------------------------------------------------------------|


Outro:

 Gtr. 1
||--------------------------------------------------------------------||
||--------------------------------------------------------------------||
||----------8-------6---------------6-------5---------------2---------||
||------7---------------7-------5---------------7-------3-------------|| 
||--0-----------0-----------0-----------0-----------0-----------------|| <play 4 times>
||--------------------------------------------------------------------||

 Gtr. 1
||--------------------------------------------------------------------||
||--------------------------------------------------------------------||
||----------8-------6---------------6-------5---------------2---------||
||------7---------------7-------5---------------7-------3-------------|| 
||--0-----------0-----------0-----------0-----------0-----------------||
||--------------------------------------------------------------------||
|Gtr. 3								       | <repeat and fade>
||--------------------------------------------------------------------||
||-------10//16------14\\10-------8///14-------13\\10----6///10-------||
||--------------------------------------------------------------------||
||--------------------------------------------------------------------||
||--------------------------------------------------------------------||
||--------------------------------------------------------------------||

This tab is right on the dot! Sorry, no lyrics yet.





Comments


Popular Queens Of The Stone Age tabs & chords
I Sat By The Ocean Bass Tabs
Little Sister 3 Bass Tabs
Millionare Bass Tabs
River In The Road Chords
Auto Pilot 3 Tabs
Everybody Knows That Youre Insane Tabs
I Wanna Make It Wit Chu 4 Tabs
Lightning Song Intro Tabs
Make It Wit Chu Tabs
Little Sister Ukulele


Song lyrics



↑ Back to top | Tablatures and chords are parodies/interpretations of the original songs. You may use it for private study, scholarship, research or language learning purposes only
© 2014 AZChords.com Contact us | Privacy policy | DMCA | Add/correct tabs | Request tabs | Top 50 tabs