» » »

Queens Of The Stone Age, If Only Tabs (ver.2)

Artists:  A B C D E F G H I J K L M N O P Q R S T U V W X Y Z # 

If Only Tabs (ver.2)

Queens Of The Stone Age Tabs
 Rating:
4/5 (4 votes)
If Only lessons Tabs too difficult? Try these video lessons and learn fast
1
                Queens Of The Stone Age – IF ONLY
Written by Valarauker

Standard Tuning
EADGBE

Main Riff

e|-----------------------------
b|-----------------------------
g|6-6-6---5-5---3-3-3-x-3-3-3-3
d|6-6-6---5-5---3-3-3-x-3-3-3-3   
a|4-4-4---3-3---1-1-1-x-1-1-1-1   
e|-----------------------------
                   (mute)


if only..........



e|--------------------
b|--------------------
g|3--3-3---6----------
d|3--3-3---6---------- let ring
a|1--1-1---4----------
e|--------------------



This is all it is throughout the whole song except the solo. (which im afraid I don’t know yet)
If anyone knows how to play the solo can u correct me? Thanks.
            
Submit corrections

comments powered by Disqus
↑ Back to top | Queens Of The Stone Age Tabs for If Only. Lyrics for acoustic guitar and electric guitar. 1 Tablatures and chords are parodies/interpretations of the original songs. You may use it for private study, scholarship, research or language learning purposes only