» » »

Give The Mule What He Wants Tabs (ver.1)

Artists:  A B C D E F G H I J K L M N O P Q R S T U V W X Y Z # 

Give The Mule What He Wants Tabs (ver.1)

Queens Of The Stone Age
Rating:
0/5 (0 votes)

Hard to play? Try these video lessons and learn fast.
                song-Give the Mule What He Wants 
Tuning - C F Bb Eb G C
a pumpin' tune from their earlier days
enjoy
intro/chorus: guitar 1
-----------------------------|
-----------------------------|
---20--18--20-18--------18---|
-----------------18--18------|
-----------------------------|
-----------------------------|

intro: guitar 2
-------------------------------|
-------------------------------|
----------6-6-6----------------|
---2-2-2--6-6-6--6-6-6---------|
---2-2-2--4-4-4--6-6-6--6--4---|
---0-0-0---------4-4-4---------|

riff 1:
-------------------|
-------------------|
-------------------|
--------11-11-11---|
--------11-11-11---|
---0--0--9--9--9---|

riff 2:
---------------------|
---------------------|
---------------------|
-------11-11---------|
-------11-11-----7---|
---0h7--9--9-7h9-----|

riff 3:
-----------------------|
-----------------------|
-----------------------|
-------11-11-----------|
-------11-11-----------|
---0h7--9--9--7h9--0---|

fill 1:
-------------------|
-------------------|
-------------------|
-------------------|
-------7-------7---|
---7h9---9-7h9-----|

chorus: guitar 2
-------------------|
-------------------|
---8--6--8--6------|
---8--6--8--6--6---|
---6--4--6--4--6---|
---------------4---|
            
Hard to play? Try these video lessons and learn fast. | Correct




comments powered by Disqus
↑ Back to top | Tablatures and chords are parodies/interpretations of the original songs. You may use it for private study, scholarship, research or language learning purposes only