» » »

Queens Of The Stone Age, Feel Good Hit Of Summer Tabs (ver.1)

Artists:  A B C D E F G H I J K L M N O P Q R S T U V W X Y Z # 

Feel Good Hit Of Summer Tabs (ver.1)

Queens Of The Stone Age Tabs
Rating:
0/5 (0 votes)
Feel Good Hit Of Summer lessons Tabs too difficult? Try these video lessons and learn fast
                Starts with bass intro, then

E----------------------------------------------------------
B----------------------------------------------------------
G----------------------------------------------------------
D-8-8-8-8-8-8-8-8-8-8--------------------------------------
A-8-8-8-8-8-8-8-8-8-8--------------------------------------
E-6-6-6-6-6-6-6-6-6-6--------------------------------------
Palm-muted>>>>>>>>>>>>>>>>>>> Listen to song for how many times played.

E---------------------------------------------------------------
B---------------------------------------------------------------
G---------------------------------------------------------------
D-8-8-8-8-8-8-9------8-8-8-8-8-9--------------------------------
A-8-8-8-8-8-8-9------8-8-8-8-8-9--------------------------------
E-6-6-6-6-6-6-7------6-6-6-6-6-7-------------------------------

E----------------------------------------------------------
B----------------------------------------------------------
G----------------------------------------------------------
D-8-8-8-8-8-8-8-8-8-8-9------------------------------------
A-8-8-8-8-8-8-8-8-8-8-9------------------------------------
E-6-6-6-6-6-6-6-6-6-6-7------------------------------------

E----------------------------------------------------------
B----------------------------------------------------------
G----------------------------------------------------------
D-8-8-8-8-8-8-8-8-8-8-8-8-8-8-8-8-8-8-9--------------------
A-8-8-8-8-8-8-8-8-8-8-8-8-8-8-8-8-8-8-9--------------------
E-6-6-6-6-6-6-6-6-6-6-7-6-6-6-6-6-6-6-7--------------------

E----------------------------------------------------------
B----------------------------------------------------------
G----------------------------------------------------------
D-8-8-8-8-8-8-8-8-8-8-8-8-8-8-8-8-8-8-8-8-9----------------
A-8-8-8-8-8-8-8-8-8-8-8-8-8-8-8-8-8-8-8-8-9----------------
E-6-6-6-6-6-6-6-6-6-6-6-6-6-6-6-6-6-6-6-6-7----------------

Bass and almost untabbable solo then

E----------------------------------------------------------
B----------------------------------------------------------
G----------------------------------------------------------
D-8-8-8-8-8-8-8-8-8-8-8-8-8-8-8-8-8-8-8-8-----------------
A-8-8-8-8-8-8-8-8-8-8-8-8-8-8-8-8-8-8-8-8-----------------
E-6-6-6-6-6-6-6-6-6-6-6-6-6-6-6-6-6-6-6-6-----------------
Palm muted>>>>>>>>>>>>>>>>>>>>>>>>>>>>>>>

E---------------------------------------------------------------
B---------------------------------------------------------------
G---------------------------------------------------------------
D-8-8-8-8-8-8-9------8-8-8-8-8-9--------------------------------
A-8-8-8-8-8-8-9------8-8-8-8-8-9--------------------------------
E-6-6-6-6-6-6-7------6-6-6-6-6-7-------------------------------

E----------------------------------------------------------
B----------------------------------------------------------
G----------------------------------------------------------
D-8-8-8-8-8-8-8-8-8-8-8-8-8-8-8-8-8-8-9--------------------
A-8-8-8-8-8-8-8-8-8-8-8-8-8-8-8-8-8-8-9--------------------
E-6-6-6-6-6-6-6-6-6-6-6-6-6-6-6-6-6-6-7--------------------

E----------------------------------------------------------
B----------------------------------------------------------
G----------------------------------------------------------
D-8-8-8-8-8-8-8-8-8-8-8-8-8-8-8-8-8-8-9--------------------
A-8-8-8-8-8-8-8-8-8-8-8-8-8-8-8-8-8-8-9--------------------
E-6-6-6-6-6-6-6-6-6-6-7-6-6-6-6-6-6-6-7--------------------

E----------------------------------------------------------
B----------------------------------------------------------
G----------------------------------------------------------
D-8-8-8-8-8-8-8-8-8-8-8-8-8-8-8-8-8-8-9--------------------
A-8-8-8-8-8-8-8-8-8-8-8-8-8-8-8-8-8-8-9--------------------
E-6-6-6-6-6-6-6-6-6-6-6-6-6-6-6-6-6-6-7--------------------

E----------------------------------------------------------
B----------------------------------------------------------
G----------------------------------------------------------
D-8-8-8-8-8-8-8-8-8-8-8-8-8-8-8-8-8-8-9--------------------
A-8-8-8-8-8-8-8-8-8-8-8-8-8-8-8-8-8-8-9--------------------
E-6-6-6-6-6-6-6-6-6-6-7-6-6-6-6-6-6-6-7--------------------

E----------------------------------------------------------
B----------------------------------------------------------
G----------------------------------------------------------
D-8-8-8-8-8-8-8-8-8-8-8-8-8-8-8-8-8-8----------------------
A-8-8-8-8-8-8-8-8-8-8-8-8-8-8-8-8-8-8----------------------
E-6-6-6-6-6-6-6-6-6-6-6-6-6-6-6-6-6-6----------------------

E----------------------------------------------------------
B----------------------------------------------------------
G----------------------------------------------------------
D-8-8-8-8-8-9----------------------------------------------
A-8-8-8-8-8-9----------------------------------------------
E-6-6-6-6-6-7----------------------------------------------
            
Submit corrections

comments powered by Disqus
↑ Back to top | Queens Of The Stone Age Tabs for Feel Good Hit Of Summer. Lyrics for acoustic guitar and electric guitar. Tablatures and chords are parodies/interpretations of the original songs. You may use it for private study, scholarship, research or language learning purposes only