» » »

Queen, Millionaire Waltz Bass tabs (ver.2)

Artists:  A B C D E F G H I J K L M N O P Q R S T U V W X Y Z # 

Millionaire Waltz Bass tabs (ver.2)

Queen Tabs
 Rating:
4/5 (4 votes)
Millionaire Waltz lessons Tabs too difficult? Try these video lessons and learn fast
1
                ++++++++++++++++++++++++++++++++
| Queen- The Millionaire Waltz |
++++++++++++++++++++++++++++++++


"How we danced and played..."

Tuning: EADG


Intro
1.
G|---10--7--------10--7------------------12x-----------10x---------------------|
D|---------10-7---------10-7----------12----------7-10---------------10x-------|
A|-8------------8---------------10-13-----------8---------------7-10-----------|
E|------------------------------------------------------------8----------8~----|

2.
G|----10-7----------7~-8~----------14-12-----------------17-------14-15-17-19~----|
D|---------10---10~-------8~-------------15-14-15~--17~-----15-17-----------------|
A|-88---------8---------------12~-------------------------------------------------|
E|--------------------------------------------------------------------------------|

Verse
"Bring out the charge of the love brigade..."
3.
G|-------------------------19-19----19-19----12-12----12-12-----------|
D|----15-15----15-15----------------------------------------10~\------|
A|-------------------15/17-------17-------10-------10-----------------|
E|-13-------13--------------------------------------------------------|

"Drink to the sound of the song parade..."
4.
G|----------------------19-19----171514---------------------12-------|
D|----15-15----15-15-------------------15----------------------12----|
A|-------------------17-------15----------13~---12~---10~---------13-|
E|-13-------13-------------------------------------------------------|

"Give a little love to me..."
5.
G|----12-12-12141512------------------12-12-12141512------------------9-10~---|
D|-------------------1512-10~------------------------1512-10~---10-12---------|
A|-10------------------------------10-----------------------------------------|
E|----------------------------------------------------------------------------|

6.
G|-17-19-20-15~--------14-12-------------------17-------14-15-17-19~----|
D|---------------------------15-14-15~---17~------15-17-----------------|
A|------------------12--------------------------------------------------|
E|----------------------------------------------------------------------|

"Once we were mad, we were happy..."
7.
G|----------------------------14~--15~--14-------------|
D|-----------------------------------------15----------|
A|--------------------------------------------15-------|
E|-----------------------------------------------13~---|

"Do you remember..."
8.
G|------------------------14-14----14-14--------------------------------------|
D|-12~--10~-------------------------------------11-12-14-15-------11-12-14-15-|
A|-----------13~--12~---------------------12-14-------------12-14-------------|
E|----------------------------------------------------------------------------|

"Stay there forever and ever..."
9.
G|-14~---12~------------------------|
D|-----------------------15~--------|
A|----------------------------------|
E|----------------------------------|

"Now I am sad, you are so far away..."
10.
G|---------------------------18~-----\-|
D|-------------------------------------|
A|-------------------------------------|
E|-------------------------------------|

"Come back to me..."
11.
G|-----------------------10~-------10~--------12----------------------20~----|
D|--11~--10~~-----------------10~----------10----10-15~------17-18-20--------|
A|-------------13~---------------------------------------18~-----------------|
E|---------------------------------------------------------------------------|

2:00
12.
G|--15~---------------|
D|-----------13~------|
A|--------------------|
E|--------------------|

"Come back, come back to me..."
13.
G|----15-15----15-15----------------------15-15----15-15--------------------|
D|----------------------13-13----13-13-----------------------13-13----13-13-|
A|-------------------------------------13-------13--------------------------|
E|--------------------------------------------------------11-------11-------|

14.
G|-----------------11~----/12~--------|
D|------------10~---------------------|
A|-10~--10~---------------------------|
E|------------------------------------|

15.
G|---------9910~-----10-9~------10-9-8~------8-6-5---666666-666666-|
D|-10101212----------------------------------------6---------------|
A|-----------------------------------------------------------------|
E|-----------------------------------------------------------------|

"Come back to me..."
16.
G|-666666-555555-333333-333333-888888-888888-|
D|-------------------------------------------|
A|-------------------------------------------|
E|-------------------------------------------|

"How I long for your love..."
17.
G|-------6h8~-------8h10p8~---------6h8~-------8h10-888888-888888-888888-888888-88-66----|
D|-6~-8~--------6-8-----------6~-8~--------6-8----------------------------------------88-|
A|---------------------------------------------------------------------------------------|
E|---------------------------------------------------------------------------------------|

18.
G|-6x--------------|
D|-----------------|
A|-----------------|
E|-----4x--4x--4x--|

2:51
19.
G|----------------------------------------------------8~----------|
D|----------------------------------------------------------------|
A|-------------------------6x--6x--6x--6x--6x--6x-----------------|
E|-4x--4x--4x--4x--4x--4x---------------------------------4x--4x--|

20.
G|-----------------------------------------------------------------|
D|-----------------------------------------------------------------|
A|-------------------------1---1---1~--0~--4~------8~--------------|
E|-4---4---4---1---1---1-----------------------4~----------6~------|

21.
G|----------------------------20~--------|
D|-13~-----------------------------------|
A|---------------------------------------|
E|---------------------------------------|

3:56
22.
G|-----------------------------7~-8~---------14-12-----------------17-------14-15-17-19~----|
D|-------------------------10~-------8~------------15-14-15~--17~-----15-17-----------------|
A|---------7-8------7-8~-----------------12~------------------------------------------------|
E|-8~---10-----8-10-------------------------------------------------------------------------|

"Bring out the charge of the love brigade..."
23.
G|-------------------------19-19----19-19----12-12----12-12-----------|
D|----15-15----15-15----------------------------------------10~\------|
A|-------------------15/17-------17-------10-------10-----------------|
E|-13-------13--------------------------------------------------------|

"Drink to the sound of the song parade..."
24.
G|----------------------19-19----171514---------------------12-------|
D|----15-15----15-15-------------------15----------------------12----|
A|-------------------17-------15----------13~---12~---10~---------13-|
E|-13-------13-------------------------------------------------------|

"Give a little love to me..."
25.
G|----12-12-12141512------------------12-12-12141512------------------9-10~---|
D|-------------------1512-10~------------------------1512-10~---10-12---------|
A|-10------------------------------10-----------------------------------------|
E|----------------------------------------------------------------------------|

"Come back..."
26.
G|-----7~-8~---------14-12-----------------17-------14-15-17~----|
D|-10~-------8~------------15-14-15~--17~-----15-17--------------|
A|---------------12~---------------------------------------------|
E|---------------------------------------------------------------|

Outro
27.
G|-555532-32020--0---------555532-32020--0---------|
D|-------------3--2--------------------3--2--------|
A|-----------------3~----------------------3~------|
E|-------------------------------------------------|

"Make me feel like a millionaire..."
28.
G|-10---------|
D|----10-7----|
A|---------8x-|
E|------------|

Please rate thanks!


Lyrics:

Bring out the charge of the love brigade
There is spring in the air once again
Drink to the sound of the song parade
There is music and love everywhere
Give a little love to me
(I wanna) Take a lotta love from me
I want to share it with you

Feel like a millionaire
Once we were mad we were happy
We spent all our days holding hands together
Do you remember my love
How we danced and played?
In the rain we laid
We could stay there forever and ever
Now I am sad you are so far away
I sit counting the hours day by day
Come back to me
How I long for your love
Come back to me
Be happy like we used to be

Come back come back to me
Come back come back to me
Oh come back to me oh my love
How I long for your love
Won't you come back to me?

My fine friend
Take me with you and love me forever
My fine friend
Forever forever

Bring out the charge of the love brigade
There is spring in the air once again
Drink to the sound of the song parade
There is music and love ev'rywhere
Give a little love to me
(I wanna) Take a little love from me
I want to share it with you
Come back come back to me feel
Make me feel like a millionaire



+++++++++++
| Raileff |
+++++++++++
            
Submit corrections

comments powered by Disqus
↑ Back to top | Queen Bass for Millionaire Waltz. Lyrics for acoustic guitar and electric guitar. 1 Tablatures and chords are parodies/interpretations of the original songs. You may use it for private study, scholarship, research or language learning purposes only