>
 >
The Millionaire Waltz

The Millionaire Waltz Bass Tabs

Queen - The Millionaire Waltz chords, tabs, tablatures, lyrics

Guitar lessons | Add/correct | Request | Top 50 tabs Artists:  A B C D E F G H I J K L M N O P Q R S T U V W X Y Z 0-9

The Millionaire Waltz Bass Tabs – Queen

CD, Sheet music, Poster

Do you like The Millionaire Waltz? Share with your friends now
Bass TabsBass Tabs v2Bass Tabs v3
I have slight doubts on the last section. That part's not fun anyway.

0:07
G|----10--9-------|---10--9------|----------12---------10------------------|
D|----------10-8--|---------10-8-|----9--12-------7-10--------------10-----|
A|--8-------------|-8------------|-10-----------8--------------7-10--------|
E|----------------|--------------|---------------------------8----------8--|

G|-------10-9-----------7---8-----------14-12------------12--17-------14-15-17-19--|
D|------------10-7-10-----------8--------------15-14--15--------15-17--------------|
A|--88------------------------------12---------------------------------------------|
E|---------------------------------------------------------------------------------|

0:22
G|----------------1919---1919--------------------------|
D|--1515--1515--------------------1717---1717----------|
A|--------------17-----17---------------------15-\-----|
E|-----------------------------15------15--------------|

G|------------------1919----1917------------------12------:
D|---1515---1515----------------201917--------------12----:
A|----------------17--------------------13-12--10------10-:
E|-13----13-----------------------------------------------:

   :----1212---12-14-15-14-12----------|
   :---------------------------14------|
   :-10----------------------------15--|
   :-----------------------------------|


0:37
G|------1212--12-14-1515-14-----------------------|
D|--------------------------15----------12-14-15--|
A|--10-------------------------15---15------------|
E|------------------------------------------------|

G|--17-19-20-19-------14-12-----------12---17-------14-15-17-19--|
D|--------------------------15-14-15----------15-17--------------|
A|----------------12---------------------------------------------|
E|---------------------------------------------------------------|

1:05
G|--14----------------------------1414-1414--:
D|-----15------------------------------------:
A|--------15------17--15--13--12-------------:
E|-----------17------------------------------:

   :--------------------------------------14--12-|
   :-------11-12-14-15--------11-12-14-15--------|
   :-12-14--------------12-14--------------------|
   :---------------------------------------------|

1:34
G|--18-\----------22------22------------------------------17----20--|
D|--------------------22----------------------------18-20----18-----|
A|--------15--13-----------------22---22-----20--18-----------------|
E|----------------------------20----20------------------------------|

G|--15------1515-1515-------------------------------------------------------|
D|------13-------------1313-1313-------------1111-----1111---------------1--|
A|--------------------------------13--13------------------------------------|
E|----------------------------------------11-------11--------3-/-8--2-3-----|

2:22                                           
G|--------------------------------------------|
D|----------------------------------1-1-1-1---|
A|---8--87--876--643---4---4--3--1------------|
E|-------------------6------------------------|

                     x2             x5
G|----------------------|--------------|-------------|
D|*-------1----------1-*|*-1-11--1-11-*|--1----------|
A|*---3-4-------1-34---*|*------------*|----4-3-1----|
E|--4---------4---------|--------------|-----------4-|

2:47
G|----------------------------------------------------------:
D|----------------------------------------------------------:
A|------------------------6-6-6-6-6-6-----------------------:
E|--4-4-4-4-4-4-4-4-4-4-----------------4-4-4-4--4--1--1--1-:

   :-----------------------------|
   :-------------------3-----1---|
   :-1--1--1--0--4--3-----1------|
   :-----------------------------|

3:56
G|------------------------------------------:
D|------------------------------------------:
A|---------------------------------------12-:
E|-8-10-12--8-10-12--8-10-12-13--8-10-12----:

   :----14-12----------12---17-------14-15-17-19-|
   :----------15-14-15---------15-17-------------|
   :-12------------------------------------------|
   :---------------------------------------------|

4:08
G|----------------1919---1919--------------------------|
D|--1515--1515--------------------1717---1717----------|
A|--------------17-----17---------------------15-------|
E|-----------------------------15------15--------------|

G|------------------1919----1917------------------12------:
D|---1515---1515----------------201917--------------12----:
A|----------------17--------------------13-12--10------10-:
E|-13----13-----------------------------------------------:

   :----1212---12-14-15-14-12----------|
   :---------------------------14------|
   :-10----------------------------15--|
   :-----------------------------------|
4:26
G|------1212--12-14-1515-14-----------------------------------------:
D|--------------------------15----------12-14-15---13-12------------:
A|--10-------------------------15---15-------------------15-13---12-:
E|------------------------------------------------------------------:

   :-14-12-----------12---17-------14-15-17-19--|
   :-------15-14-15----------15-17--------------|
   :--------------------------------------------|
   :--------------------------------------------|

4:37
G|--5-5-5-5-3-2--3-2-0--2-0----0-----------
D|--------------------------3----2---------
A|---------------------------------3-------
E|-----------------------------------------

G|--5-5-5-5-3-2--3-2-0--2-0----0-----------------------------------|
D|--------------------------3----3-2--3-2------------3-------------|
A|----------------------------------------3--3-3--------3----------|
E|---------------------------------------------------------5--1----|





Comments


Popular Queen tabs & chords
Body Language Bass Tabs
Jealousy Bass Tabs
Lily Of The Valley Bass Tabs
Cool Cat Chords
Jealousy Tabs
Mother Love Tabs
Now Im Here Intro 1 Tabs
She Makes Me 1 Tabs
These Are The Days Of Our Lives Ukulele
Warboys Ukulele


Song lyrics



↑ Back to top | Tablatures and chords are parodies/interpretations of the original songs. You may use it for private study, scholarship, research or language learning purposes only
© 2014 AZChords.com Contact us | Privacy policy | DMCA | Add/correct tabs | Request tabs | Top 50 tabs