>
 >
The Millionaire Waltz 3

The Millionaire Waltz 3 Bass Tabs

Queen - The Millionaire Waltz 3 chords, tabs, tablatures, lyrics

Guitar lessons | Add/correct | Request | Top 50 tabs Artists:  A B C D E F G H I J K L M N O P Q R S T U V W X Y Z 0-9

The Millionaire Waltz 3 Bass Tabs – Queen

CD, Sheet music, Poster

Do you like The Millionaire Waltz 3? Share with your friends now
Bass TabsBass Tabs v2Bass Tabs v3
                            The Millionaire Waltz-Queen                           

    


                                                                          
This is (I think) John Deacon's best bass job. Most of this is in waltz time, so 

watch your counting.

Piano Intro
     
G---------------|---------------|-----10-----------------|
D---------------|---------------|------------12--10------|
A---------------|---------------|--8-----------------12--|
E---------------|---------------|------------------------|


  E   E  E   E   E   E      E  E   E   E   E  E     E  E  E   E   E  E   
-----10-----------------|-----------------12-----|---------------10-----|
------------12--10------|------9--10--12---------|--------7--10---------|
--8-----------------12--|--10--------------------|-----8----------------|
------------------------|------------------------|----------------------|


  E  E  E   E   E  E     H.              E  E   E   E  E  E     Q    Q    Q     
----------------------|---------------|--------10------------|--5----7----8----|
---------------10-----|---------------|------------10--7-----|-----------------|
--------7--10---------|--3------------|--8--8-------------8--|-----------------|
-----8----------------|---------------|----------------------|-----------------|


  H.              E   E   E   E   E   E      H.               H.            
---------------|---------14--12----------|----------------|----------------|
--8------------|-----------------15--14--|--15------------|--17------------|
---------------|-----12------------------|----------------|----------------|
---------------|-------------------------|----------------|----------------|


   E   E   E   E   E   E      H           H           Q     E  E   E  E   
--17----------14--15--17--|--19--------|--L--------|---------------------|
------15--17--------------|------------|-----------|-------15-----15-----|
--------------------------|------------|-----------|---------------------|
--------------------------|------------|-----------|---------------------|


  Q     E  E   E  E      Q     E  E   E  E      Q     E  E   E  E   
---------------------|--------19-----19-----|--------19-----19-----|
-------15-----15-----|----------------------|----------------------|
---------------------|--17------------------|--17------------------|
---------------------|----------------------|----------------------|


   Q     E  E   E  E      Q     E  E   E  E     H.              H.            
----------------------|----------------------|---------------|---------------|
--------17-----17-----|--------17-----17-----|---------------|---------------|
----------------------|----------------------|---------------|---------------|
--15------------------|--15------------------|--8------------|--L------------|


  Q     E  E   E  E     Q     E  E   E  E      Q     E  E   E  E   
-------10-----10-----|-------10-----10-----|--------19-----19-----|
---------------------|---------------------|----------------------|
--8------------------|--8------------------|--17------------------|
---------------------|---------------------|----------------------|


   Q     E   E   E   E     H.              H.              H.            
--------17--15--14------|---------------|---------------|---------------|
--------------------15--|---------------|---------------|---------------|
--15--------------------|---------------|---------------|---------------|
------------------------|--6------------|--5------------|--3------------|


   E  E   E  E   E  E      Q     E  E   E  E      E   E   E   E   E   E   
--12-------------------|--------12-----12-----|--12--14--15--14--12------|
---------12------------|----------------------|----------------------12--|
----------------13-----|--10------------------|--------------------------|
-----------------------|----------------------|--------------------------|


   H.              H.               Q     E  E   E  E   
----------------|---------------|--------12-----12-----|
--10------------|--L------------|----------------------|
----------------|---------------|--10------------------|
----------------|---------------|----------------------|


   E   E   E   E   E   E      H.               Q     Q     Q     
--12--14--15--14--12------|----------------|--------------------|
----------------------12--|----------------|--------12----14----|
--------------------------|--15------------|--15----------------|
--------------------------|----------------|--------------------|


   H.               Q     Q     Q        H.            
----------------|--17----19----20----|--19------------|
--15------------|--------------------|----------------|
----------------|--------------------|----------------|
----------------|--------------------|----------------|


  E   E   E   E   E   E      H.               H.            
---------14--12----------|----------------|--12------------|
-----------------15--14--|--15------------|----------------|
--0----------------------|----------------|----------------|
-----17------------------|----------------|----------------|


   E   E   E   E   E   E      H           Bass Breaks                       
--17----------14--15--17--|--19--------|
------15--17--------------|------------|
--------------------------|------------|
--------------------------|------------|


    S E.   S E.   S.E  T  
------------------------|
--19--------------------|
---------20-------------|
----------------20------|


   H.               H.               H.              H.            
----------------|----------------|----------------|---------------|
----------------|--12------------|--10------------|--8------------|
----------------|----------------|----------------|---------------|
--13------------|----------------|----------------|---------------|


  H.              Q     E  E   E  E     Q     E  E   E  E   
---------------|-------14-----14-----|-------14-----14-----|
--7------------|---------------------|---------------------|
---------------|---------------------|---------------------|
---------------|---------------------|---------------------|


   E   E   E   E  E   E      E   E   E   E  E   E      H.            
------------------9--10--|------------------9--10--|--14------------|
----------11--12---------|----------11--12---------|----------------|
--12--13-----------------|--12--13-----------------|----------------|
-------------------------|-------------------------|----------------|


   H.              H.              H.              Q     H        Another Break   
--12------------|---------------|---------------|-------22--------|
----------------|---------------|---------------|-----------------|
----------------|---------------|---------------|-------20--------|
----------------|---------------|---------------|-----------------|


  H.              H.               H.              H        E  E   
---------------|---------------|--18------------|--L--------L-----|
---------------|---------------|----------------|-----------------|
---------------|---------------|----------------|-----------------|
---------------|---------------|----------------|-----------------|


  H.              H.              H.              S E.   H         
--5------------|--3------------|--L------------|--------22--------|
---------------|---------------|---------------|--3---------------|
---------------|---------------|---------------|--------20--------|
---------------|---------------|---------------|------------------|


   S E.   H            S E.   H           Q     E   E   Q        H.            
---------20--------|---------22--------|---------------------|----------------|
-------------------|-------------------|---------------------|----------------|
---------18--------|---------20--------|-----------22--------|--20------------|
--13---------------|--13---------------|-------20------20----|----------------|


   Q     E   E   Q        H.              Play a couple notes in here when right.  

              
----------------15----|--20------------|
--------17--18--------|----------------|
--18------------------|----------------|
----------------------|----------------|



    Q     E  E   E  E   
--------15-----15-----|
----------------------|
--13------------------|
----------------------|


   Q     E  E   E  E      Q     E  E   E  E      Q     E  E   E  E   
--------15-----15-----|----------------------|----------------------|
----------------------|--------13-----13-----|--------13-----13-----|
--13------------------|----------------------|----------------------|
----------------------|--11------------------|--11------------------|


  Q     E  E   E  E     Q     E  E   E  E      Q     E  E   E  E   
-------15-----15-----|-------15-----15-----|----------------------|
---------------------|---------------------|--------13-----13-----|
---------------------|---------------------|----------------------|
--6------------------|--6------------------|--11------------------|


   Q     E  E   Q       Q    E  E  E  E     Q    E  E  E  E   
---------------------|-------------------|-------------------|
--------13-----13----|-------5-----5-----|-------5-----5-----|
---------------------|-------------------|-------------------|
--11-----------------|--3----------------|--3----------------|


  Q    E  E  E  E     H.              H.              H.            
-------5-----5-----|---------------|---------------|--3------------|
-------------------|--4------------|--L------------|---------------|
--3----------------|---------------|---------------|---------------|
-------------------|---------------|---------------|---------------|


  H.              H.              H.              W                 
--L------------|---------------|---------------|-------------------|
---------------|--1------------|--L------------|-------------------|
---------------|---------------|---------------|-------------------|
---------------|---------------|---------------|-------------------|


  H.              H        E  E     H.              H        E  E   
---------------|-----------------|---------------|-----------------|
--3------------|--L--------L--3--|--2------------|--L--------3--2--|
---------------|-----------------|---------------|-----------------|
---------------|-----------------|---------------|-----------------|


  H.              Q    E  E  E  E     H.              H.            
---------------|-------------------|---------------|---------------|
--1------------|--L----1-----------|---------------|---------------|
---------------|----------4--3-----|--4------------|--L------------|
---------------|----------------4--|---------------|---------------|

Up tempo

  E  E  E  E  E  E     E  E  E  E  E  E     E  E  E  E  E  E   
--------------------|--------------------|--------------------|
--------------------|--------------------|--------------------|
--4--4--4--4--4--4--|--3--3--3--3--3--3--|--1--1--1--1--1--1--|
--------------------|--------------------|--------------------|


  E  E  E  E  E  E     E  E  E  E  E  E     E  E  E  E  E  E   
--------------------|--------------------|--------------------|
--------------------|--1--1--1--1--1--1--|--1--1--1--1--1--1--|
--1--1--1--1--1--1--|--------------------|--------------------|
--------------------|--------------------|--------------------|


  Q.     E  E  E     E  E  E  E  E  E     E  E  E  E  E  E   
------------------|--------------------|--------------------|
------------------|--1--1--1--1--1--1--|-----------------3--|
---------1-----4--|--------------------|--------1-----4-----|
--4---------------|--------------------|--4-----------------|


  E  E  E  E  E  E     Q.     E  E  E     E  E  E  E  E  E   
--------------------|------------------|--------------------|
--1--1--1--1--1--1--|------------------|--1--1--1--1--1--1--|
--------------------|---------1-----4--|--------------------|
--------------------|--4---------------|--------------------|


  E  E  E  E  E  E     E  E  E  E  E  E     E  E  E  E  E  E   
--------------------|--------------------|--------------------|
-----------------3--|--1--1--1--1--1--1--|--1--1--1--1--1--1--|
--------1-----4-----|--------------------|--------------------|
--4-----------------|--------------------|--------------------|


  E  E  E  E  E  E     E  E  E  E  E  E     E  E  E  E  E  E   
--------------------|--------------------|--------------------|
--1--1--1--1--1--1--|--1--1--1--1--1--1--|--1--1--1--1--1--1--|
--------------------|--------------------|--------------------|
--------------------|--------------------|--------------------|

                     Solo (w00t)
  E  E  E  E  E  E     Q    H           Q    H           Q    H         
--------------------|----------------|----------------|----------------|
--1--1--------------|----------------|----------------|----------------|
--------4--4--1--1--|----------------|----------------|----------------|
--------------------|--4-------------|--4-------------|--4-------------|


  Q    H           Q    H           Q    H           Q    H         
----------------|----------------|----------------|----------------|
----------------|----------------|----------------|----------------|
----------------|----------------|----------------|----------------|
--4-------------|--4-------------|--4-------------|--4-------------|


  Q    H           Q    H           Q    H           Q    H         
----------------|----------------|----------------|----------------|
----------------|----------------|----------------|----------------|
----------------|----------------|----------------|--6-------------|
--4-------------|--4-------------|--4-------------|----------------|


  Q    H           Q    H           Q    H           Q    H         
----------------|----------------|----------------|----------------|
----------------|----------------|----------------|----------------|
--6-------------|--6-------------|--6-------------|--6-------------|
----------------|----------------|----------------|----------------|


  Q    H           H.              Q     H           Q    H         
----------------|---------------|-------20--------|----------------|
----------------|---------------|-----------------|----------------|
--6-------------|---------------|-------18--------|----------------|
----------------|---------------|-----------------|--4-------------|


  Q    H           Q    H           H        E  E     H        E  E   
----------------|----------------|-----------------|-----------------|
----------------|----------------|-----------------|-----------------|
----------------|----------------|-----------------|-----------------|
--4-------------|--4-------------|--4--------L-----|--4--------L-----|


  H        E  E     H        E  E     H        E  E     H.            
-----------------|-----------------|-----------------|---------------|
-----------------|-----------------|-----------------|---------------|
-----------------|-----------------|-----------------|---------------|
--1--------L-----|--1--------L-----|--1--------L-----|--6------------|


  H.              H.              H.              H.              H.            
---------------|---------------|---------------|---------------|---------------|
---------------|---------------|---------------|---------------|---------------|
---------------|---------------|---------------|--4------------|---------------|
--6------------|--6------------|--5------------|---------------|--4------------|


  H.              H.              H.              H.              H.            
---------------|---------------|---------------|---------------|--8------------|
---------------|---------------|---------------|---------------|---------------|
--8------------|--L------------|---------------|---------------|---------------|
---------------|---------------|--6------------|--L------------|---------------|


  H.              H.              Q     H                    
---------------|--8------------|--L----20--------|
--6------------|---------------|-----------------|
---------------|---------------|-------18--------|
---------------|---------------|-----------------|

Bass comes back in MUCH later after solo.

  Q.     E  E  E     E  E  E  E  E  E     E  E  E  E  E  E     Q.     E  Q     
------------------|--------------------|--------------------|-----------------|
------------------|--------0-----2-----|--------0-----2-----|--3------3--3----|
--3------3--3--3--|--3-----------------|--3-----------------|-----------------|
------------------|--------------------|--------------------|-----------------|


  E  E  E  E  E  E     H.              Q     E   E   E   E      H.            
--------0-----2-----|---------------|-------14--12----------|----------------|
--3-----------------|---------------|---------------15--14--|--15------------|
--------------------|--1------------|--0--------------------|----------------|
--------------------|---------------|-----------------------|----------------|


   H.               E   E   E   E   E   E      H.              H.            
----------------|--17----------14--16--17--|--19------------|--L------------|
--17------------|------15--17--------------|----------------|---------------|
----------------|--------------------------|----------------|---------------|
----------------|--------------------------|----------------|---------------|


  Q     E  E   E  E     Q     E  E   E  E      Q     E  E   E  E   
---------------------|---------------------|--------19-----19-----|
-------15-----15-----|-------15-----15-----|----------------------|
---------------------|---------------------|--17------------------|
---------------------|---------------------|----------------------|


   Q     E  E   E  E      Q     E  E   E  E      Q     E  E   E  E   
--------19-----19-----|----------------------|----------------------|
----------------------|--------17-----17-----|--------17-----17-----|
--17------------------|----------------------|----------------------|
----------------------|--15------------------|--15------------------|


  H.              H.              Q     E  E   E  E     Q     E  E   E  E   
---------------|---------------|-------10-----10-----|-------10-----10-----|
---------------|---------------|---------------------|---------------------|
---------------|---------------|--8------------------|--8------------------|
--8------------|--L------------|---------------------|---------------------|


   Q     E  E   E  E      Q     E   E   E   E     H.              H.            
--------19-----19-----|--------17--15--14------|---------------|---------------|
----------------------|--------------------15--|---------------|---------------|
--17------------------|------------------------|---------------|---------------|
----------------------|--20--------------------|--6------------|--5------------|


  H.               E  E   E  E   E  E      Q     E  E   E  E   
---------------|--12-------------------|--------12-----12-----|
---------------|---------12------------|----------------------|
---------------|----------------13-----|--10------------------|
--3------------|-----------------------|----------------------|


   E   E   E   E   E   E      H.              H.            
--12--14--15--14--12------|----------------|---------------|
----------------------12--|--10------------|--L------------|
--------------------------|----------------|---------------|
--------------------------|----------------|---------------|


  Q     E  E   E  E      E   E   E   E   E   E      H.            
--0----12-----12-----|--12--14--15--14--12------|----------------|
---------------------|----------------------12--|----------------|
---------------------|--------------------------|--15------------|
---------------------|--------------------------|----------------|


   Q     Q     Q        Q.      E   Q        Q     Q     Q        H.            
--------------------|--------------------|--17----19----20----|----------------|
--------12----14----|--15------15--15----|--------------------|--20------------|
--15----------------|--------------------|--------------------|----------------|
--------------------|--------------------|--------------------|----------------|


   E   E   E   E   E   E      H        E   E      H.            
--------------------------|-------------------|--12------------|
--19------19--17--15--14--|--15--------L--15--|----------------|
--------------------------|-------------------|----------------|
------17------------------|-------------------|----------------|


   E   E   E   E   E   E      Q     Q     Q     
--17----------14--15--17--|--17----17----17----|
------15--17--------------|--------------------|
--------------------------|--15----15----15----|
--------------------------|--------------------|


   |---3---|   |---3---|   |---3---|      |---3---|   3   3       3   
   E   E   E   E   E   E   E   E   E      E   E   E   E   E  Q    E   
--------------------------------------|------------------------------|
--------------------------------------|------------------------------|
--15--15--15--15--13--12--13--12------|--12--------------------------|
----------------------------------15--|------15--13--15--12--8----L--|


           |--3--|     |--3--|  |--3--|  |--3--|     |--3--|             
  H        E  E  E     E  E  E  E  E  E  E  E  E     E  E  E  Q    Q     
--------------------|-----------------------------|---------------------|
--------------------|-----------------------------|---------------------|
--------------------|-----------------------------|-----------3----3----|
--L--------8--8--8--|--8--6--5--6--5--3--5--3--1--|--3--0--L------------|


  H.              H.              H.              H.              H.            
---------------|---------------|---------------|---------------|---------------|
---------------|---------------|---------------|---------------|---------------|
--3------------|--L------------|--L------------|---------------|---------------|
---------------|---------------|---------------|---------------|---------------|


  E  E  E  E  E  E     E  H        E                
--------------------|-----------------|-----|-----||
--3-----------------|-----------------|-----|-----||
--------3-----0-----|-----------------|-----|-----||
--------------------|--1--------------|-----|-----||




Duration Legend
---------------
W - whole
H - half
Q - quarter
E - 8th
S - 16th
T - 32nd
X - 64th
. - note dotted
|-n-|  - n-tuplets


Tablature Legend
----------------
L - tied note
x - dead note
g - grace note
(n) - ghost note
> - accentuded note
NH - natural harmonic
AH - artificial harmonic
TH - tapped harmonic
SH - semi harmonic
PH - pitch harmonic
h - hammer on
p - pull off
b - bend
br - bendRelease
pb - preBend
pbr - preBendRelease
brb - bendReleaseBend
\n/ - tremolo bar dip
\n - tremolo bar dive
-/n - tremolo bar Release up
/n\ - tremolo bar inverted dip
/n - tremolo bar return
-\n - tremolo bar Release down
S - shift slide
s - legato slide
/ -  slide into from below or out of upwards
\ -  slide into from above or out of downwards
~ - vibrato
W - wide vibrato
tr - trill
TP - tremolo picking
T - tapping
S - slap
P - pop
< - fade in
^ - brush up
v - brush down





Comments


Popular Queen tabs & chords
Anotherone Bites The Dust-Exactly Right Bass Tabs
Body Languge Bass Tabs
Flash Bass Tabs
Another One Bites The Dust 1 Chords
Driven By You Chords
Im Going Slightly Mad 1 Chords
Tie Your Mother Down Drum Tabs
A Kind Of Magic Tabs
Save Me 1 Tabs
Somebody To Love Tabs


Song lyrics



↑ Back to top | Tablatures and chords are parodies/interpretations of the original songs. You may use it for private study, scholarship, research or language learning purposes only
© 2014 AZChords.com Contact us | Privacy policy | DMCA | Add/correct tabs | Request tabs | Top 50 tabs