» » »

Queen, Bicycle Race Tabs (ver.3)

Artists:  A B C D E F G H I J K L M N O P Q R S T U V W X Y Z # 

Bicycle Race Tabs (ver.3)

Queen Tabs
 Rating:
4/5 (4 votes)
Bicycle Race lessons Tabs too difficult? Try these video lessons and learn fast
                (Solo)
Bicycle Race
Queen


Even though this solo may seem like a lot of overdubs, it is only 2.
I will just split this up into the 2 guitar solo tracks.


   ~~~~~~~~~~~~~~~~~~~~~~~~~~~~~~~~~~~~~~~~~~~~~~~~~~~~~
e|--------------------------------------------------------|Guitar 1
B|--------------------------------------------------------|
G|-2h3p2h3p2h3p2h3p2h3p2h3p2h3p2h3p2h3p2h3p2h3p2h3p2h3p2--|
D|--------------------------------------------------------|
A|--------------------------------------------------------|
E|--------------------------------------------------------|
 |                                                        |
 |          ~~~~~~~~~~~~~~ ~~~~~~~~~~~~~~ ~~~~~~~~~~~~~~  |
e|-----------5p4h5p4h5p4h5-12p11h12p11h12-17h18p17h18p17--|Guitar 2
B|--------------------------------------------------------|
G|--------------------------------------------------------|
D|--------------------------------------------------------|
A|--------------------------------------------------------|
E|--------------------------------------------------------|



e|-------------7-9-10-|---------------|Guitar 1
B|------7-8-10--------|---------------|
G|-/7-9---------------|---------------|
D|--------------------|---------------|
A|--------------------|---------------|
E|--------------------|---------------|
 |                                    |
 |                                    |
e|--------------------------------4-5-|Guitar 2
B|----------------------------5-7-----|
G|----------------------4-6-7---------|
D|------------------2/7---------------|
A|------------------------------------|
E|------------------------------------|


e|-------------7-9-10-|---------------|----------------------|Guitar 1
B|------7-8-10--------|---------------|-----7-8--------------|
G|-/7-9---------------|---------------|-7-9------------------|
D|--------------------|---------------|----------------------|
A|--------------------|---------------|----------------------|
E|--------------------|---------------|----------------------|
 |                                                           |
 |                                                           |
e|--------------------------------4-5-|-------------12-14-15-|Guitar 2
B|----------------------------5-7-----|----------15----------|
G|----------------------4-6-7---------|----------------------|
D|------------------2/7---------------|----------------------|
A|------------------------------------|----------------------|
E|------------------------------------|----------------------|


e|---------------------|-------------------|Guitar 1
B|---------------------|---------4-5-------|
G|---6-8-9-------------|-------------------|
D|-9-------------------|-1-2---------------|
A|---------------------|-------------------|
E|---------------------|-------------------|
 |                                         |
 |                                         |
e|---------------11-12-|-------------11-12-|Guitar 2
B|---------12-14-------|-------------------|
G|---------------------|-----3-4-----------|
D|---------------------|-------------------|
A|---------------------|-------------------|
E|---------------------|-------------------|


e|-12~~~~~~~~~~~~~~~~~~~~~~~~~~~~~~~~~~~~~~~~----|Guitar 1
B|-----------------------------------------------|
G|-----------------------------------------------|
D|-----------------------------------------------|
A|-----------------------------------------------|
E|-----------------------------------------------|
 |                                               |
 |                                               |
e|---------------------|-------------------------|Guitar 2
B|---------------------|-------------------------|
G|---------------------|-------------------------|
D|-----------------1-2-|---------------------1-2-|
A|-----------0~~--4----|-------------0-0-0-4-----|
E|-2~~--4~~------------|-2-2-2-4-4-4-------------|
 |                                               |
 |                                               |
e|-----------------------------------------------|
B|-17b~~16b~~15b~~~~~~~~~~~~~~~~~~~~~~~~~~~~~~~--|
G|-----------------------------------------------|
D|-----------------------------------------------|
A|-----------------------------------------------|
E|-----------------------------------------------|
Note: Each note in the measure for guitar 3 is played by seperate guitars,
and held out to the end of the measure.


Rate this and comment, it took me a while to make.
            
Submit corrections

comments powered by Disqus
↑ Back to top | Queen Tabs for Bicycle Race. Lyrics for acoustic guitar and electric guitar. Tablatures and chords are parodies/interpretations of the original songs. You may use it for private study, scholarship, research or language learning purposes only