>
 >
Bicycle Race 1

Bicycle Race 1 Bass Tabs

Queen - Bicycle Race 1 chords, tabs, tablatures, lyrics

Guitar lessons | Add/correct | Request | Top 50 tabs Artists:  A B C D E F G H I J K L M N O P Q R S T U V W X Y Z 0-9

Bicycle Race 1 Bass Tabs – Queen

CD, Sheet music, Poster

Do you like Bicycle Race 1? Share with your friends now
Bass TabsBass Tabs v2ChordsChords v2Chords v3TabsTabs v2Tabs v3Ukulele
                                Queen
                              Bicycle         
Here is the Queen song bicycle

BASS

                                                            
G||------------------|------------------|------------------|
D||------------------|------------------|------------------|
A||------------------|------------------|------------------|
E||------------------|------------------|------------------|


                                                                          
--------------13----|---------------------6-----|------------------------|
--------------------|--------10------8-------8--|--0--0--0--0--0--0------|
--------------------|--11--------11-------------|------------------------|
--------------------|---------------------------|------------------------|


                                                                           
------------------------|------------------------|--1----5--1--3----6--3--|
------------------------|------------------------|------------------------|
--2--2--2--2--2--2------|------------------------|------------------------|
------------------------|--4--4--4--4--4--4------|------------------------|


                                                                            
--1----8----13--------|---------------------6-----|-----5--6--8--13--------|
----------------------|--------10------8-------8--|--6---------------------|
----------------------|--11--------11-------------|------------------------|
----------------------|---------------------------|------------------------|


                                                                                
---------------------6-----|--5----8--5--13--------|-------------------6---|
--------10------8-------8--|-----------------------|-------10------8-----8-|
--11--------11-------------|-----------------------|-11--------11----------|
---------------------------|-----------------------|-----------------------|


                                                                            
--5----8----13--------|----------|-------------3------|--------------------|
----------------------|----------|--------------------|--------------------|
----------------------|----------|--1-----------------|--1----------1------|
----------------------|----------|--------------------|--------------------|


                                                               
--------------3------|-------------------|--------------------|
---------------------|-------------------|--------------------|
--1----1-------------|-------------------|-------------0------|
---------------------|--2----------------|--3-----------------|


                                                              
--------------------|-------------3------|-------------------|
--------------------|--------------------|-------------------|
--1--------1--------|--1-----------------|--1----------------|
--------------------|--------------------|-------------------|


                                                               
-------3------3------|-------------------|--------------------|
---------------------|-------------------|-------------3------|
--1------------------|-------------------|--------------------|
---------------------|--2----------------|--3-----------------|


                                                                           
------------------------|------------------------|------------------------|
------------------------|--1--1--1--1--1--1------|--0--0--0--0--0--0------|
-----------------0------|------------------------|------------------------|
--1--1--1--1--3---------|------------------------|------------------------|


                                                                           
------------------------|--1----5--1--3----6--3--|------------------------|
------------------------|------------------------|--0--0--0--0--0--0------|
--4--4--4--4--4--4------|------------------------|------------------------|
------------------------|------------------------|------------------------|


                                                                             
------------------------|--------------------------|--1----5--1--3----6--3-|
------------------------|--------------------------|-----------------------|
--2--2--2--2--2--2------|--------------------------|-----------------------|
------------------------|--4--4--4--4--4--4--4--4--|-----------------------|


                                                                          
--1----8----13--------|---------------------6-----|-------8----13--------|
----------------------|--------10------8-------8--|--6-------------------|
----------------------|--11--------11-------------|----------------------|
----------------------|---------------------------|----------------------|


                                                          
-----------------------------6--|-----5--6--8--13--------|
--10--10------10--11--11--8-----|--6---------------------|
----------11--------------------|------------------------|
--------------------------------|------------------------|


                                                                            
---------------------6-----|---------------|--0------------|---------------|
--------10------8-------8--|---------------|---------------|---------------|
--11--------11-------------|---------------|---------------|--3------------|
---------------------------|--3------------|---------------|---------------|


                                                                   
---------------|---------------|------------------|---------------|
--------0------|---------------|--3------1--0-----|---------------|
---------------|---------------|---------------3--|--1------------|
---------------|--1------------|------------------|---------------|


                                                                    
----------------|----------------|------------0----|---------------|
----------------|-------------0--|---------0-------|---------------|
--------1--1----|----------------|-----------------|--3------------|
----------------|--3-------------|--3--------------|---------------|


                                                                 
---------------|---------------|----------------|---------------|
--------0------|--3------------|--------1--0----|---------------|
---------------|---------------|----------------|--1------------|
---------------|---------------|----------------|---------------|


                                                                  
------------3----|---------------|---------------|---------------|
---------3-------|---------------|---------------|--0------------|
--1--------------|--1------------|--0------------|---------------|
-----------------|---------------|---------------|---------------|


                                                                      
-----------------|----------------|--2----7---------|----------------|
-------3------2--|--0-------------|-----------------|----------------|
--3--------------|-----------3----|--------------3--|--1--------3----|
-----------------|----------------|-----------------|----------------|


                                                                                
-------------------|-------------------|-------------------|---------------|
-------------------|-------------------|-------------------|---------------|
-------------------|-------------------|-------------------|---------------|
--3----3--3--3--3--|--3----3--3--3--3--|--3----3--3--3--3--|--3------------|


                                                                           
------------------------|------------------------|------------------------|
--3--3--3--3--3--3------|--2--2--2--2--2--2------|--1--1--1--1--1--1------|
------------------------|------------------------|------------------------|
------------------------|------------------------|------------------------|


                                                                           
--1----5--1--3----6--3--|------------------------|------------------------|
------------------------|--0--0--0--0--0--0------|------------------------|
------------------------|------------------------|--2--2--2--2--2--2------|
------------------------|------------------------|------------------------|


                                                                          
--------------------------|--------------------------|-------------------|
--------------------------|--------------------------|-------------------|
--------------------------|--------------------------|--3----------------|
--3--3--3--3--3--3--3--3--|--3--3--3--3--3--3--3--3--|-------------------|


                                                                            
------------------|------------------|------------------|------------------|
------------------|------------------|------------------|------------------|
------------------|------------------|------------------|------------------|
------------------|------------------|------------------|------------------|


                                                                            
------------------|------------------|------------------|------------------|
------------------|------------------|------------------|------------------|
------------------|------------------|------------------|------------------|
------------------|------------------|------------------|------------------|


                                                                                
------------------|------------------|------------------|-7--------7-------|
------------------|------------------|------------------|------7--------7--|
------------------|------------------|------------------|------------------|
------------------|------------------|------------------|------------------|


                                                                             
--------2--------2-----2--|--7---------7---------|-----4--6--7--7--8--9--6-|
--------------------------|-------7---------7----|--7----------------------|
--0--0-----0--0-----0-----|----------------------|-------------------------|
--------------------------|----------------------|-------------------------|


                                                                     
--7---------7---------|--4---------4---------|----------------------|
-------7---------7----|-------4---------4----|--2---------2---------|
----------------------|----------------------|-------2---------2----|
----------------------|----------------------|----------------------|


                                                                    
---------------------|----------------------|----------------------|
---------------------|-------1--2-----------|-------------------1--|
----------------1----|----4-----------------|---------1------4-----|
--2------4-----------|---------------2------|--4-------------------|


                                                               
-------------3------|-------------3------|-------------3------|
--2-----------------|--------------------|--------------------|
--------------------|--1-----------------|--1-----------------|
--------------------|--------------------|--------------------|


                                                              
-------------3------|-------------------|--------------------|
--------------------|-------------------|--------------------|
--1-----------------|-------------------|-------------0------|
--------------------|--2----------------|--3-----------------|


                                                               
--------------------|-------------3------|-------------3------|
--------------------|--------------------|--------------------|
--1--------1--------|--1-----------------|--1-----------------|
--------------------|--------------------|--------------------|


                                                            
-------------------|-------------------|--0----------------|
-------------------|--4----------------|-------------------|
--1----------------|-------------------|-------------------|
-------------------|-------------------|-------------------|


                                                                           
------------------------|------------------------|------------------------|
------------------------|--1--1--1--1--1--1------|--0--0--0--0--0--0------|
-----------------0------|------------------------|------------------------|
--1--1--1--1--3---------|------------------------|------------------------|


                                                                           
------------------------|--1----5--1--3----6--3--|------------------------|
------------------------|------------------------|--0--0--0--0--0--0------|
--4--4--4--4--4--4------|------------------------|------------------------|
------------------------|------------------------|------------------------|


                                                                             
------------------------|--------------------------|--1----5--1--3----6--3-|
------------------------|--------------------------|-----------------------|
--2--2--2--2--2--2------|--------------------------|-----------------------|
------------------------|--4--4--4--4--4--4--4--4--|-----------------------|


                                                                          
--1----8----13--------|---------------------6-----|-------8----13--------|
----------------------|--------10------8-------8--|--6-------------------|
----------------------|--11--------11-------------|----------------------|
----------------------|---------------------------|----------------------|


                                                     
---------------------6-----|--8--5--6--8--13--------|
--------10------8-------8--|------------------------|
--11--------11-------------|------------------------|
---------------------------|------------------------|


                                                                     
---------------------6-----|--8------------------|------------------|
--------10------8-------8--|---------------------|------------------|
--11--------11-------------|---------------------|------------------|
---------------------------|-------4----4--------|------------------|


                    
------------------||
------------------||
------------------||
------------------||





Comments


Popular Queen tabs & chords
Under Pressure Bass Tabs
Hammer To Fall Chords
Crazy Little Thing Called Love 1 Tabs
God Save The Queen Tabs
Rain Must Fall Tabs
Tear It Up Tabs
We Will Rock You Tabs
White Man Tabs
You Are My Best Freind Tabs
Teo Torriatte Let Us Cling Together Ukulele


Song lyrics



↑ Back to top | Tablatures and chords are parodies/interpretations of the original songs. You may use it for private study, scholarship, research or language learning purposes only
© 2014 AZChords.com Contact us | Privacy policy | DMCA | Add/correct tabs | Request tabs | Top 50 tabs