» » »

Queen, Bicycle Race Tabs (ver.1)

Artists:  A B C D E F G H I J K L M N O P Q R S T U V W X Y Z # 

Bicycle Race Tabs (ver.1)

Queen Tabs
 Rating:
4.6/5 (10 votes)
Bicycle Race lessons Tabs too difficult? Try these video lessons and learn fast
1
                Gtr. 1 sounds from left loud-speaker/headphone
Gtr. 2 sounds from right loud-speaker/headphone
Gtr. 3 sounds from both loud-speakers/headphones
[I put this for three guitars but there may be more]

h = hammer on
p = pull off
] = played just before

Fig I:  [2:00]

Gtr. 1
E|------------------------------------------------------------|
B|---------------------16h17p16h17p16h17p16h17p16h17p16h17----|
G|------------------------------------------------------------|
D|--7h8p7h8p7h8p7h8p7h8---------------------------------------|
A|------------------------------------------------------------|
E|------------------------------------------------------------|

Gtr. 2
E|---------------------------------17h18p17h18p17h18p17h18----|
B|------------------------------------------------------------|
G|---------14h15p14h15p14h15p14h15----------------------------|
D|------------------------------------------------------------|
A|------------------------------------------------------------|
E|------------------------------------------------------------|

This part is hammered very quickly!

Fig II:  [2:03]

Gtr. 1
E|-------------7-9-|10---------------|-------------7-9-|10---------------|
B|------7-8-10-----|-----------------|------7-8-10-----|-----------------|
G|--7-9------------|-----------------|--7-9------------|-----------------|
D|7----------------|-----------------|7----------------|-----------------|
A|-----------------|-----------------|-----------------|-----------------|
E|-----------------|-----------------|-----------------|-----------------|

Gtr. 2
E|-----------------|-----------------|-----------------|-----------------|
B|-----------------|-------------7-9-|10---------------|-------------7-9-|
G|-----------------|-------6-7-9-----|-----------------|-------6-7-9-----|
D|-----------------|---7-9-----------|-----------------|---7-9-----------|
A|-----------------|-7---------------|-----------------|-7---------------|
E|-----------------|-----------------|-----------------|-----------------|

Fig III:  [2:08]

Gtr. 1
E|-----------------|-----------------|-----------------|12b14------------|
B|-----------------|----4-5----------|-----------------|-----------------|
G|---7-8-----------|4-6--------------|--------8-9------|-----------------|
D|7-9--------------|-----------------|-----------------|-----------------|
A|-----------------|-----------------|6-7--------------|-----------------|
E|-----------------|-----------------|-----------------|-----------------|
                                                       
Gtr. 2
E|---------12-14-15|----------9-11-12|------------11-12|-----------------|
B|10----15---------|-------12--------|-----------------|------16b17------|
G|-----------------|-----------------|-----------------|-----------------|
D|-----------------|-----------------|----8-9----------|-----------------|
A|-----------------|-----------------|-----------------|-----------------|
E|-----------------|-----------------|-----------------|-----------------|

Gtr. 3
E|-----------------|-----------------|-----------------|-----------------|
B|-----------------|-----------------|-----------------|-----------------|
G|-----------------|-----------------|-----------------|-----------------|
D|-----------------|-----------------|-----------------|-----------18b19-|
A|-----------------|-----------------|-----------------|-----------------|
E|-----------------|-----------------|-----------------|-----------------|
Let that last measure ring long with every guitar. --> ^                 ^

I'll soon try to figure out the verse and then modify this tab. Thanks!
            
Submit corrections

comments powered by Disqus
↑ Back to top | Queen Tabs for Bicycle Race. Lyrics for acoustic guitar and electric guitar. 1 Tablatures and chords are parodies/interpretations of the original songs. You may use it for private study, scholarship, research or language learning purposes only