>
 >
 >
Nada Que Pensar 1

Nada Que Pensar 1 Guitar Tabs

Qbo - Nada Que Pensar 1 chords, tabs, tablatures, lyrics

Guitar lessons | Add/correct | Request | Top 50 tabs Artists:  A B C D E F G H I J K L M N O P Q R S T U V W X Y Z 0-9

Nada Que Pensar 1 Guitar Tabs – Qbo

CD, Sheet music, Poster

Do you like Nada Que Pensar 1? Share with your friends now
Bass TabsBass Tabs v2TabsTabs v2
afinacion (BEadf#b)

riff 1 intro(0:00)                                                                  x2
 b|----------------------------------------------------------------------------------|
f#|-3-----2--------------------3-------------5------------7--------------------------|
 d|-4--------4---4----4-----4-------6-----6----------7--7----------------------------|
 a|-4--4-------4------5--5----------7--7----------7--7-------------------------------|
 e|-2-----------------5-------------7----------------5-------------------------------|
 B|-------------------3-------------5------------------------------------------------|

riff 2(distorsion)
 b|----------------------------------------------------------------------------------|
f#|-------3-------------------3--------------5-------------7-------------------------|
 d|---4------4---4----------4--------------6-------------7---------------------------|
 a|-4---4------4----------5--------------7-------------7-----------------------------|
 e|---------------------5--------------7-------------5-------------------------------|
 B|-------------------3--------------5-----------------------------------------------|


riff 3 verso
    p.m.----------------------------------------------------|
 b|----------------------------------------------------------------------------------|
f#|----------------------------------------------------------------------------------|
 d|----------------------------------------------------------------------------------|
 a|----------------------------------------------------------------------------------|
 e|----------------------------------------------------------------------------------|
 B|-7-7-7-5-7-5-7---3---3-3-3---3/5-5-5-5-5-5-5-5---3---3-3-3------------------------|

    p.m-----------------------------------------|
 b|----------------------------------------------------------------------------------|
f#|----------------------------------------------------------------------------------|
 d|-------------------------------------------------7-----7--9--7--------------------|
 a|-------------------------------------------------7--x--7--9--7----(5)(segunda vez)|
 e|-------------------------------------------------5--x-------------(5)-------------|
 B|-7-7-7-5-7-5-7---3---3-3-3---3/5-5-5-5-5-5-5-5--------------------(3)-------------|


riff 4 coro(repetir)
 b|----------------------------------------------------------------------------------|
f#|----------------------------------------------------------------------------------|
 d|-4-4-4-4-4-4-4-4--------------------------------------------7-7-7-7-7-7-7-7-------|
 a|-4-4-4-4-4-4-4-4----5-5-5-5-5-5-5-5-5---7-7-7-7-7-7-7-7-7---7-7-7-7-7-7-7-7-------|
 e|-2-2-2-2-2-2-2-2----5-5-5-5-5-5-5-5-5---7-7-7-7-7-7-7-7-7---5-5-5-5-5-5-5-5-------|
 B|--------------------3-3-3-3-3-3-3-3-3---5-5-5-5-5-5-5-5-5-------------------------|


riff 5 (01:52)
    p.m-------|                 p.m-------|
 b|----------------------------------------------------------------------------------|
f#|----------------------------------------------------------------------------------|
 d|----------------------------------------------------------------------------------|
 a|-------------5-5--5--x--5-5---------------5-5--5--x--5-5--------------------------|
 e|-------------5-5--5--x--5-5---------------5-5--5--x--5-5--------------------------|
 B|-7-7-7-5-7-5-7-7--7--x--7-7---3-3-3-2-3-2-3-3--3--x--3-3--------------------------|

    p.m-------|                 p.m-------|
 b|-------------------------------------------------/--------------------------------|
f#|-------------------------------------------------/--------------------------------|
 d|----------------------------------------------------------------------------------|
 a|-------------5-5--5--x--5-5---------------5-5-------------------------------------|
 e|-------------5-5--5--x--5-5---------------5-5-------------------------------------|
 B|-7-7-7-5-7-5-7-7--7--x--7-7---3-3-3-2-3-2-3-3-------------------------------------|


riff 6 solo                                                                         x2
 b|-----5--------0--------------------5--------0-------------------------------------|
f#|-(2)---3-2-3----3-2-3---5-5~---(3)----3-2-3---3-2---------------------------------|
 d|--------------------------------------------------4--2-2~-------------------------|
 a|----------------------------------------------------------------------------------|
 e|----------------------------------------------------------------------------------|
 B|----------------------------------------------------------------------------------|


riff 7 x2
 b|-17-------------------------------17----------------------------------------------|
f#|----15-14-15-17-15-14----------------15-14-15-17-15-14----------------------------|
 d|----------------------14-16-16-------------------------16--14-14------------------|
 a|----------------------------------------------------------------------------------|
 e|----------------------------------------------------------------------------------|
 B|----------------------------------------------------------------------------------|

 b|---7-------7---------5-5-5----9-7-------------------------------------------------|
f#|-----7--7----7-------7-7-7----9-7------7-10-7-------------------------------------|
 d|-7------7------7--7---------9------7h8--------8-6---------------------------------|
 a|----------------------------------------------------------------------------------|
 e|----------------------------------------------------------------------------------|
 B|----------------------------------------------------------------------------------|


riff 8 x2 (3:17)
 b|----------------------------------------------------------------------------------|
f#|--3-3-3-2---4------3-3-3-2---4------3-3-3-2---4-------3-3-3-2---4-----------------|
 d|----------4---4------------4---4------------4---4-------------4---4---------------|
 a|----------------------------------------------------------------------------------|
 e|----------------------------------------------------------------------------------|
 B|----------------------------------------------------------------------------------|


acorde final
 b|----------------------------------------------------------------------------------|
f#|----------------------------------------------------------------------------------|
 d|--5~------------------------------------------------------------------------------|
 a|--5~------------------------------------------------------------------------------|
 B|--3~------------------------------------------------------------------------------|





Comments


Popular Qbo tabs & chords
Desvanecer Bass Tabs
No Mas Bass Tabs
No Mas 1 Bass Tabs
Desvanecer 1 Tabs
Nada Que Pensar Tabs
No Mas Tabs
No Mas 1 Tabs
One Last Time Tabs
Rien Tabs
Sangre De Tu Sangre Tabs


Song lyrics



↑ Back to top | Tablatures and chords are parodies/interpretations of the original songs. You may use it for private study, scholarship, research or language learning purposes only
© 2014 AZChords.com Contact us | Privacy policy | DMCA | Add/correct tabs | Request tabs | Top 50 tabs