» » »

Nada Que Pensar Bass tabs (ver.2)

Artists:  A B C D E F G H I J K L M N O P Q R S T U V W X Y Z # 

Nada Que Pensar Bass tabs (ver.2)

Qbo
Rating:
0/5 (0 votes)

Hard to play? Try these video lessons and learn fast.
                intro, solo de gutarra, coro
g ------------------------------------------------------------|
d ------------------------------------------------------------|
a --------------5-5-5-5-5-------------------------------------|
e --2-2-2-2-2---------------0-0-0-0-0---5-5-5-5-5-------------|

verso
g ------------------------------------------------------------|
d ------------------------------------------------------------|
a ----------------5-5-5-5-5---------------5-5-5-5-5-----------|
e --2-2-2-0-2-0---------------0-0-0-0-0-----------------------|

puente
g ------------------------------------------------------------|
d ------------------------------------------------------------|
a ---------------------5-5-5-5-4-5-4-5-5x---------------------|
e --2-2-2-0-2-0-2-2x------------------------------------------|

puente
g ------------------------------------------------------------|
d ------------------------------------------------------------|
a ------------------------------------------------------------|
e --2-2-2-2-2-2-2-2-2-2---5-5-5-5-5-5-5-5-5-5-----------------|


g ------------------------------------------------------------|
d ------------------------------------------------------------|
a --9-9-9-9-9---7-7-7-7-7-7---12-12-12-12-12------------------|
e ---------------------------------------------9-9-9-9-9------|


g ------------------------------------------------------------|
d ------------------------------------------------------------|
a ------------------------------------------------------------|
e --2-2-2-2-2-2-2-2-2-2---5-5-5-5-5-5-5-5-5-5-----------------|


g ------------------------------------------------------------|
d ------------------------------------------------------------|
a --9-9-9-9-9-9-9-9---11-11-11-11-11-11---12-12-12-12-12------|
e ---------------------------------------------------------2--|

escuchen la cancio para darle el ritmo


suerte banda
            
Hard to play? Try these video lessons and learn fast. | Correct




comments powered by Disqus
↑ Back to top | Tablatures and chords are parodies/interpretations of the original songs. You may use it for private study, scholarship, research or language learning purposes only