» » »

Qbo, Nada Que Pensar Bass tabs (ver.1)

Artists:  A B C D E F G H I J K L M N O P Q R S T U V W X Y Z # 

Nada Que Pensar Bass tabs (ver.1)

Qbo Tabs
 Rating:
4/5 (4 votes)
Nada Que Pensar lessons Tabs too difficult? Try these video lessons and learn fast
1
                riff1 (0:11)(0:50)(1:29)(2:02)(2:43)
coro y solo de guitarra
d|-------------------------------------------------------------------------|
a|-------------------------------------------------------------------------|
e|--------------------------------------------------5-5-5-5-5-5-5-5--------|
b|-7-7-7-7-7-7-7-7--3-3-3-3-3-3-3-3--5-5-5-5-5-5-5-5-----------------------|


riff 2 (0:22) (1:01)
versos
d|---------------------------------------------------------------------------|
a|---------------------------------------------------------------------------|
e|-----------------------5-5-5-5-5-5-5-5-------------------------------------|
b|-7-7-7-5-7-5-7--3-3-3-3----------------3-3-3-3-----------------------------|


riff 3 (01:52)
puente
d|-------------------------------------------------------------------------|
a|-------------------------------------------------------------------------|
e|-------------------------------------------------------------------------|
b|-7-7-7-5-7-5-7-7--7-x-7-7----3-3-3-3-2-3-2-2--2-x-2-2--------------------|


riff 4 (2:14)
puente
d|-------------------------------------------------------------------------|
a|-------------------------------------------------------------------------|
e|-------------------------------------------------------------------------|
b|-3-3-3-3-3-3-3-3-3-3-3-3-3-3-3-3--5-5-5-5-5-5-5-5-5-5-5-5-5-5-5-5--------|

d|-------------------------------------------------------------------------|
a|-9-9-9-9-9-9--7-7-7-7-7--12-12-12-12-------------------------------------|
e|--------------------------------------9-9-9-9-9/-------------------------|
b|-------------------------------------------------------------------------|

d|-------------------------------------------------------------------------|
a|-------------------------------------------------------------------------|
e|-------------------------------------------------------------------------|
b|-3-3-3-3-3-3-3-3-3-3-3-3-3-3-3-3--5-5-5-5-5-5-5-5-5-5-5-5-5-5-5-5--------|

d|-------------------------------------------------------------------------|
a|-9-9-9-9-9-9-9-9-9-9-9-9-9-9-9-9-9/-11-11-11-11-11-11--12-12-12-12-12----|
e|-------------------------------------------------------------------------|
b|----------------------------------------------------------------------3--|

MARTIN IVAN DE ITA MACORRA

SUERTE BANDA
            
Submit corrections

comments powered by Disqus
↑ Back to top | Qbo Bass for Nada Que Pensar. Lyrics for acoustic guitar and electric guitar. 1 Tablatures and chords are parodies/interpretations of the original songs. You may use it for private study, scholarship, research or language learning purposes only