» » »

Puddle Of Mudd, She ***In Hates Me Tabs (ver.1)

Artists:  A B C D E F G H I J K L M N O P Q R S T U V W X Y Z # 

She ***In Hates Me Tabs (ver.1)

Puddle Of Mudd Tabs
Rating:
0/5 (0 votes)
She ***In Hates Me lessons Tabs too difficult? Try these video lessons and learn fast
                Intro, verse1, chorus1, verse2, and verse3|
D|-3--3--5---5---------------------------------------------|
A|--01-0--033-30-------------------------------------------|
E|1-----3--------------------------------------------------|
Guitar 2 does some weird thing on verses, but I couldn't figure it out.
Pre-choruses, and Chorus2&3|
G|---------------4-----------------------------------------|
D|2----7----4----4(x4)-------------------------------------|
A|2(x5)7(x5)4(x3)2-----------------------------------------|
E|0----5----2----------------------------------------------|
Solo|
e|---------------------------------------------------------|
B|----10-10-10-10-7-10-7-12-12-12-12-----------------------|
G|9-9-9-9--------------------------------------------------|

Layout|
I, V1, P-c, C1, V2, P-c, C2, S, V3, P-c, C3
            
Submit corrections

comments powered by Disqus
↑ Back to top | Puddle Of Mudd Tabs for She ***In Hates Me. Lyrics for acoustic guitar and electric guitar. Tablatures and chords are parodies/interpretations of the original songs. You may use it for private study, scholarship, research or language learning purposes only