>
 >
She ***In Hates Me

She ***In Hates Me Bass Tabs

Puddle Of Mudd - She ***In Hates Me chords, tabs, tablatures, lyrics

Guitar lessons | Add/correct | Request | Top 50 tabs Artists:  A B C D E F G H I J K L M N O P Q R S T U V W X Y Z 0-9

She ***In Hates Me Bass Tabs – Puddle Of Mudd

CD, Sheet music, Poster

Do you like She ***In Hates Me? Share with your friends now
Bass TabsBass Tabs v2
1st part of the 1st verse is played without bass

1st Verse (2nd part)
G:-------------------------------------------------------
D:-------------------------------------------------------
A:--------0---------2---2---------0-----------2--2-4-----
E:-0-|--0-----5-2---------4-0---0-----5-2-0-2--------4-0-

Soft Chorus + 2nd Verse (Soft + Loud parts)
G:-----------------------------------------------------------
D:-----------------------------------------------------------
A:---------00--------2---22----------00----------2---22------
E:-00-|--0-----5-22---------4-00---0-----5-2-0-2--------4-00-

Chorus 
G:-----------------------------------------------------------------|X2
D:-----------------------------------------------------------------|X2
A:---------0-0-0-0-------2-2-2-2-2---------0-0-0-0-------2-2-2-2-2-|X2
E:-0-0-0-0---------2-2-2-----------0-0-0-0---------2-0-2-----------|X2

Instrumental + 3rd Verse + 4th Verse + Outro
G:----------------------------------------------------------
D:----------------------------------------------------------
A:--------00--------2---22----------00----------2---22------
E:-00---0-----5-22---------4-00---0-----5-2-0-2--------4-00-

G:------------------------------------------------------
D:------------------------------------------------------
A:---00--------2---22----------00----------2---2-2-2----
E:-0-----5-22---------4-00---0-----5-2-0-2-----------00-





Comments


Popular Puddle Of Mudd tabs & chords
Blurry Bass Tabs
Hates Me Bass Tabs
She Hates Me 2 Bass Tabs
Away From Me Tabs
Bring Me Down 2 Tabs
Change My Mind (Intro) Tabs
Heel Over Head 1 Tabs
Never Change Tabs
She Hates Me 2 Tabs
She Hates Me 8 Tabs


Song lyrics



↑ Back to top | Tablatures and chords are parodies/interpretations of the original songs. You may use it for private study, scholarship, research or language learning purposes only
© 2014 AZChords.com Contact us | Privacy policy | DMCA | Add/correct tabs | Request tabs | Top 50 tabs