» » »

Piss It All Away Tabs (ver.2)

Artists:  A B C D E F G H I J K L M N O P Q R S T U V W X Y Z # 

Piss It All Away Tabs (ver.2)

Puddle Of Mudd
Rating:
0/5 (0 votes)

Hard to play? Try these video lessons and learn fast.
                So I was looking at the other tab for this song and it wasn't very helpful, although I
manage to learn the song.  It's really annoying using the strange tuning, though.  This
how I decided to play it, although it may not be exactly like the recording.(At least 
can do all of it on one guitar.)


Strum this to the rhythm of the song for two measures.
e|--0--------------------------|
B|--5--------------------------|
G|--4--------------------------|
D|--6--------------------------|
A|--7--------------------------|
E|--0--------------------------|

Then you throw in this riff twice.
e|---7-7/5-5-4-4/2-2-00--|
B|-----0---0---0------0--|
G|---------4----------1--|
D|-----------------------|
A|-----------------------|
E|--0--------------------|

Then strum this riff gently throughout the verses.
e|-----0-00---0-00--000---07-77-6-6-6--|
B|-----0-00---0-00--000---55-----------|
G|------------------------44-----------|
D|--0------0------0-------66-----------|
A|--5------6------7-----7--------------|
E|--5------6------7-----0--------------|

At some points, there is an altered riff played.
e|-----0-00---0-00--000---7-77-6-6-6---|
B|-----0-00---0-00--000---5------------|
G|------------------------4------------|
D|------------------------6------------|
A|--7------5------3-----2--------------|
E|--5------3------1-----0--------------|

Once again, there is a slightly altered riff.
e|-----0-00---0-00--000---7-77-6-6-6---|
B|-----0-00---0-00--000---5------------|
G|------------------------4------------|
D|------------------------6------------|
A|--7------5------7-----2--------------|
E|--5------3------5-----0--------------|

Then you play the first riff for two measures again.
e|--0--------------------------|
B|--5--------------------------|
G|--4--------------------------|
D|--6--------------------------|
A|--7--------------------------|
E|--0--------------------------|

Then comes the third riff a bunch of times.(When it starts getting heavier, you can
in the major 3rds of the bass line instead of the droning D.)
e|-----0-00---0-00--000---07-77-6-6-6--|
B|-----0-00---0-00--000---55-----------|
G|------------------------44-----------|
D|--0------0------0-------66-----------|
A|--5------6------7-----7--------------|
E|--5------6------7-----0--------------|

At some point, there is a riff on an electric guitar played twice.
e|------------------------------------------------------------|
B|------------------------------------------------------------|
G|--9/11--11--11/13-13-13--9-9--9/11--11--11/14-14-14--13-13--|
D|------------------------------------------------------------|
A|--7/9-9-9--9-9/11-11-11--7-7--7/9-9-9--9-9/12-12-12--11-11--|
E|------------------------------------------------------------|

While The electric is doing this, the acoustic can simply follow by going.
|--F#-F#-G#-G#-E--A-A-G-G-F--F#-F#-A-A-G#--A-A-G-G-F--E--|

And finally, the ending riff after all the other instruments have cut out.
e|-----------------------------------------------------------|
B|-----------------------------------------------------------|
G|-----------------------------------------------------------|
D|--9----------------------------------------9--9--9--9--9---|
A|--7-Continue strumming this rhythmically,--10-10-10-10-10--|
E|--0-----------------------then play this.--0--0--0--0--0---|

End on that E5 chord.

Well this was actually a lot of fun, and I hope you guys enjoy this song as much as I do.


Lyrics:

What I feel, it is real
What I do, it's the truth
When I drink, I can't think
When I use, I need more.

When you're weak, I can't speak
Close your eyes and taste this wine
The cork removed less purified
I throw everything away that you say, erase everything that you think.

What I feel, it's a sin
Tell the truth, do not lie
Make a wish, will come true
One way streets, one track mind.

Open up and see the light
One million ways to hypnotize
I throw everything away that you say, erase everything that you think,
Erase everything that you think.

p**s it, p**s it all away,
p**s it, p**s it all away.

Throw it all away,
Throw it all away.
            
Hard to play? Try these video lessons and learn fast. | Correct




comments powered by Disqus
↑ Back to top | Tablatures and chords are parodies/interpretations of the original songs. You may use it for private study, scholarship, research or language learning purposes only