» » »

Puddle Of Mudd, Livin On Borrowed Time Tabs (ver.1)

Artists:  A B C D E F G H I J K L M N O P Q R S T U V W X Y Z # 

Livin On Borrowed Time Tabs (ver.1)

Puddle Of Mudd Tabs
Rating:
0/5 (0 votes)
Livin On Borrowed Time lessons Tabs too difficult? Try these video lessons and learn fast
                PUDDLE OF MUDD - LIVIN ON BORROWED TIME
TRANSCRIBED FOR C TUNING
Tuning: C G C F A D

  Intro:
D|---------------------------------------------------------------------------|
A|---------------------------------------------------------------------------|
F|---------------------------------------------------------------------------|
C|-13h15--(x)--13h15-13h15-13~~-13h15--(x)--13h15-13h15-18~~-13h15--(x)------|
G|-13h15--(x)--13h15-13h15-13~~-13h15--(x)--13h15-13h15-18~~-13h15--(x)------|
c|-13h15--(x)--13h15-13h15-13~~-13h15--(x)--13h15-13h15-18~~-13h15--(x)------|

OR 
D|---------------------------------------------------------------------------|
A|---------------------------------------------------------------------------|
F|-8-/10--X---8-/10---8--10--8-----------------------------------------------|
C|-8-/10--X---8--10---8--10--8-----ETC---------------------------------------|
G|-6-/-8--X---6-/-8---6/-8---6-----------------------------------------------|
c|---------------------------------------------------------------------------|

D|----------------------------------------------|
A|----------------------------------------------|
F|------------------17-17-17-18-18-18-21-21-21--|
C|-13h15-13h15-13~~--x--x--x--x--x--x--x--x--x--|
G|-13h15-13h15-13~~-15-15-15-16-16-16-19-19-19--|
C|-13h15-13h15-13~~-----------------------------|

  Chorus/ Intro
D|----------------------------------|            D----------------------|
A|----------------------------------|            A----------------------|
F|----------------------------------|            F----------------------|
C|-3-3-3-3-6-6-6-6-1-1-1-1-8-8-8-8--|  3x's then C-3-3-3-3-6-6-6-6-1~~--|
G|-3-3-3-3-6-6-6-6-1-1-1-1-8-8-8-8--|            G-3-3-3-3-6-6-6-6-1~~--|
C|-3-3-3-3-6-6-6-6-1-1-1-1-8-8-8-8--|            C-3-3-3-3-6-6-6-6-1~~--|


  INTRO/CHORUS GUITAR 2
D|------------------------------------------------------------------------|
A|------------------------------------------------------------------------|
F|-10-10-10-10--13-13-13-13-8-8-8-8-15-15-15-15-10-10-10-10--13-13-13-13--|
C|-x---x--x--x---x--x--x--x-x-x-x-x--x--x--x--x--x--x--x--x---x--x--x--x--|
G|-8---8--8--8--11-11-11-11-6-6-6-6-13-13-13-13--8--8--8--8--11-11-11-11--|
C|------------------------------------------------------------------------|

D|-------------------------------------------------------------------|
A|-------------------------------------------------------------------|
F|12-12-12-12-11-11-11-11-10-10-10-10--13--13--13--13--8--8--8--8----|
C|-x--x--x--x--x--x--x--x--x--x--x--x---x---x---x---x--x--x--x--x----| 
G|10-10-10-10--9--9--9--9--8--8--8--8--11--11--11--11--6--6--6--6----|
C|-------------------------------------------------------------------|

D|-----------------------------------------------------------|
A|-----------------------------------------------------------|
F|-15--15--15--15-10-10-10-10--13--13--13--13--8~~--13/-12---|
C|--x---x---x---x--x--x--x--x---x---x---x---x--x-----x---x---|
G|-13--13--13--13--8--8--8--8--11--11--11--11--6~~--11/-10---|
C|-----------------------------------------------------------|

CHORUS both guitars

Verse 2: 
D|-------------------------------------------------------------------------|
A|-------------------------------------------------------------------------|
F|-10-------13--------15-------18--------13------10--------8-8-8-8-8-8-8-8-|
C|--x--------x---------x--------x---------x-------x--------x-x-x-x-x-x-x-x-|
G|--8-------11--------13-------16--------11-------8--------6-6-6-6-6-6-6-6-|
C|-------------------------------------------------------------------------|

BRIDGE
D|---------------------------------------------------------------|
A|---------------------------------------------------------------|
F|---------------------------------------------------------------|
C|-1h3-(x)-1h3-1h3-1~~-1h3--(x)-1h3-1h3-6~~--1h3-(x)-1h3-1h3-1~~-|
G|-1h3-(x)-1h3-1h3-1~~-1h3--(x)-1h3-1h3-6~~--1h3-(x)-1h3-1h3-1~~-|
C|-1h3-(x)-1h3-1h3-1~~-1h3--(x)-1h3-1h3-6~~--1h3-(x)-1h3-1h3-1~~-|

D|------------------------------|
A|------------------------------|
F|-17-17-17--18-18-18-21-21-21--|
C|--x--x--x---x--x--x--x--x--x--|
G|-15-15-15--16-16-16-19-19-19--|
C|------------------------------|


 POST BRIDGE: Right here they play kinda of this soft part where
the guitar has no distortion and it is right before they head right into the 
chorus.

D|-------------------------------------------------------|
A|----------3-------------------------3---9-9-8-8-6-6----|
F|----3--3-3----6-6--5-5-------3---3-3-------------------|
C|-3-3---3------------------3-3----3---------------------|
G|-3------------------------3----------------------------|
C|-------------------------------------------------------|

OUTRO
D|----------------------------------------------------------------------|
A|----------------------------------------------------------------------|
F|----------------------------------------------------------------------|
C|-3-3-3-3-6-6-6-6-1-1-1-1-9-10-9-8-8-----3-3-3-3-6-6-6-6-1~~~~~~~~~----|
G|-3-3-3-3-6-6-6-6-1-1-1-1-9-10-9-8-8-----3-3-3-3-6-6-6-6-1~~~~~~~~~----|
C|-3-3-3-3-6-6-6-6-1-1-1-1-9-10-9-8-8-----3-3-3-3-6-6-6-6-1~~~~~~~~~----|
            
Submit corrections

comments powered by Disqus
↑ Back to top | Puddle Of Mudd Tabs for Livin On Borrowed Time. Lyrics for acoustic guitar and electric guitar. Tablatures and chords are parodies/interpretations of the original songs. You may use it for private study, scholarship, research or language learning purposes only