» » »

Abrasive Tabs (ver.2)

Artists:  A B C D E F G H I J K L M N O P Q R S T U V W X Y Z # 

Abrasive Tabs (ver.2)

Puddle Of Mudd
Rating:
0/5 (0 votes)

Hard to play? Try these video lessons and learn fast.
                e-----------------------------------------------------|
B-----------------------------------------------------|
G---7-7-7p5-5-5-7-7-7/11-11-11-7-7-7p5-5-5-7----------|
D--------------------------------------------44444444-|  bend up gradually
A-----------------------------------------------------|
D-----------------------------------------------------|

e---------------------------|
B---------------------------|
G---------------------------|
D-4-4-4-5-2-2-0-------------|
A-4-4-4-5-2-2-0  REPEAT X16-|
D-4-4-4-5-2-2-0-------------|

e-------------------------------------------------|
B-------------------------------------------------|
G-4-4-4-4-4-4-4-6-6-6-----------------------------|
D-4-4-4-4-4-4-4-6-6-6-2-2-2-2/4-2-2-2-4-4---------|
A-2-2-2-2-2-2-2-4-4-4-2-2-2-2/4-2-2-2-4-4 REPEAT--| X2
D---------------------2-2-2-2/4-2-2-2-4-4---------|

e-----------------------------------------------------------------------|
B-----------------------------------------------------------------------|
G-----------------------------------------------------------3-3---------|
D-4p3-3-4p3-3-4p3-3-4p3-3-3-1-1-1-4p3-3-4p3-3-4p3-3-4p3-3-3---- REPEAT--| X2
A-----------------------------------------------------------------------|
D-----------------------------------------------------------------------|

e------------------------|
B------------------------|
G------------------------|
D-4-4-4-5-2-2-0----------|
A-4-4-4-5-2-2-0  REPEAT--| X8
D-4-4-4-5-2-2-0----------|

e-------------------------------------------------|
B-------------------------------------------------|
G-4-4-4-4-4-4-4-6-6-6-----------------------------|
D-4-4-4-4-4-4-4-6-6-6-2-2-2-2/4-2-2-2-4-4---------|
A-2-2-2-2-2-2-2-4-4-4-2-2-2-2/4-2-2-2-4-4 REPEAT--| X4
D---------------------2-2-2-2/4-2-2-2-4-4---------|

e-------------            ---------------------------------|
B--2--2-2-2---            -6-6-6-6-6-6-6-6-6-6-6-6-6-6-6---|
G----------0-- REPEAT X11 ---------------------------------|
D-------------            -------------------------------0-|
A-------------            -4-4-4-4-4-4-------------------0-|
D-------------            -------------4-4-4-4-4-4-5-5-5-0-|

e-----------------------------------------------------------------------|
B-----------------------------------------------------------------------|
G-----------------------------------------------------------3-3---------|
D-4p3-3-4p3-3-4p3-3-4p3-3-3-1-1-1-4p3-3-4p3-3-4p3-3-4p3-3-3---- REPEAT--| X2
A-----------------------------------------------------------------------|
D-----------------------------------------------------------------------|

e---------------------------|
B---------------------------|
G---------------------------|
D-4-4-4-5-2-2-0-------------|
A-4-4-4-5-2-2-0  REPEAT X16-|
D-4-4-4-5-2-2-0-------------|
            
Hard to play? Try these video lessons and learn fast. | Correct




comments powered by Disqus
↑ Back to top | Tablatures and chords are parodies/interpretations of the original songs. You may use it for private study, scholarship, research or language learning purposes only