» » »

Prodigy, Invaders Must Die Tabs (ver.2)

Artists:  A B C D E F G H I J K L M N O P Q R S T U V W X Y Z # 

Invaders Must Die Tabs (ver.2)

Prodigy Tabs
 Rating:
4/5 (36 votes)
Invaders Must Die lessons Tabs too difficult? Try these video lessons and learn fast
                this is my first time making the tab so i think there are mistakes.

BASS INTRO

 G| ----------------------------------------|
 D| ----------------------------------------|
 A| ----------------------------------------|
 E| -9--9--9-9-9--9--9----------------------|  x15

at the 4th time the guitar part comes in

GUITAR 1 INTRO RIFF
 E| ----------------------------------------|
 B| ----------------------------------------|
 G| ----------------------------------------|
 D| ----------------------------------------|
 A| ----------------------------------------|
 E| 9--9--7--3-2-2-2---2//12--12--7--7-7-9-9| x2

GUITAR 1 INTRO RIFF
 E| ----------------------------------------|
 B| ----------------------------------------|
 G| ----------------------------------------|
 D| ----------------------------------------|
 A| ----------------------------------------|
 E| 9--9--7--3-2-2-2---2//12--12--7--7-7----|  x1
 

-----------------------------------------------------------------------------

After "we are the prodigy" 

MAIN BASS LINE
 G| ----------------------------------------|
 D| ----------------------------------------|
 A| ----------------------------------------|
 E| 9--9--7--3-2-2-2---2//12--12--7--7-7-9-9| x8

at the end of the 4th time the guitar main riff comes in 

GUITAR MAIN RIFF
 E| ----------------------------------------|
 B| ----------------------------------------|
 G| -----------9------9--9--11--11----------|
 D| 11--11-11-----11------------------------|
 A| ----------------------------------------|
 E| ----------------------------------------|


 E| ----------------------------------111214|
 B| -----------12------12--12--14--14-------|  
 G| 13--13-13------13-----------------------|   
 D| ----------------------------------------|   
 A| ----------------------------------------|   
 E| ----------------------------------------|


 E| -----------12------12--12--14--14-------|
 B| 14--14-14------14-----------------------|
 G| ----------------------------------------|
 D| ----------------------------------------|
 A| ----------------------------------------|
 E| ----------------------------------------|


 E| 16--16-16--19--16--19--19--21--21-------| 
 B| ----------------------------------------|
 G| ----------------------------------------|
 D| ----------------------------------------|
 A| ----------------------------------------|
 E| ----------------------------------------|

BASS LINE
 G| ----------------------------------------|
 D| ----------------------------------------|
 A| ----------------------------------------|
 E| 9-9-9--9-9-9--9-9-9---------------------|

MAIN BASS LINE
 G| ----------------------------------------|
 D| ----------------------------------------|
 A| ----------------------------------------|
 E| 9--9--7--3-2-2-2---2//12--12--7--7-7-9-9| x2
-----------------------------------------------------------------------------

after when they say "invaders must die"

MAIN BASS LINE
 G| ----------------------------------------|
 D| ----------------------------------------|
 A| ----------------------------------------|
 E| 9--9--7--3-2-2-2---2//12--12--7--7-7-9-9| x2

GUITAR MAIN RIFF
 E| ----------------------------------------|
 B| ----------------------------------------|
 G| -----------9------9--9--11--11----------|
 D| 11--11-11-----11------------------------|
 A| ----------------------------------------|
 E| ----------------------------------------|


 E| ----------------------------------111214|
 B| -----------12------12--12--14--14-------|  
 G| 13--13-13------13-----------------------|   
 D| ----------------------------------------|   
 A| ----------------------------------------|   
 E| ----------------------------------------|


 E| -----------12------12--12--14--14-------|
 B| 14--14-14------14-----------------------|
 G| ----------------------------------------|
 D| ----------------------------------------|
 A| ----------------------------------------|
 E| ----------------------------------------|


 E| 16--16-16--19--16--19--19--21--21-------| 
 B| ----------------------------------------|
 G| ----------------------------------------|
 D| ----------------------------------------|
 A| ----------------------------------------|
 E| ----------------------------------------|

BASS LINE 
 G| ----------------------------------------------|
 D| ----------------------------------------------|
 A| ----------------------------------------------|
 E| 2--2--2--2--2--2--2--2--9--9--9--9--9--9--9--9|

 G| ----------------------------------------------|
 D| ----------------------------------------------|
 A| ----------------------------------------------|
 E| 7--7--7--7--7--6--6--9--9--9--9--9--9--9--9--9|

GUITAR RIFF 2
 E| ----------------------------------------| 
 B| ----------------------------------------|
 G| ----------------------------------------|
 D| ---------------4--------5-5-5-5-4-2-----|
 A| ------------------4---------------------|
 E| 2--2--2--2--2---------------------------|

 E| ----------------------------------------| 
 B| ----------------------------------------|
 G| ----------------------------------------|
 D| ------------------------5-5-5-5-4-2-----|
 A| 2--2--2--2--2--1--4---------------------|
 E| ----------------------------------------|
 
 when they say "invaders must die " you play the top 2 parts for 8 times, same for the guitar part
but the last 4 you have to play it like this ↓

BASS RIFF
 G| ----------------------------------------------|
 D| ----------------------------------------------|
 A| ----------------------------------------------|
 E| 2--2--2--2--2--2--2--2--9--9--9--9--9--9--9--9|

 G| ----------------------------------------------|
 D| ----------------------------------------------|
 A| ----------------------------------------------|
 E| 7--7--7--7--7--6--6--9------------------------|

GUITAR RIFF 2
 E| ----------------------------------------| 
 B| ----------------------------------------|
 G| ----------------------------------------|
 D| ---------------4--------5-5-5-5-4-2-----|
 A| ------------------4---------------------|
 E| 2--2--2--2--2---------------------------|

 E| ----------------------------------------| 
 B| ----------------------------------------|
 G| ----------------------------------------|
 D| ----------------------------------------|
 A| 2--2--2--2--2--1--4---------------------|
 E| ----------------------------------------|

-----------------------------------------------------------------------------

GUITAR MAIN RIFF
 E| ----------------------------------------|
 B| ----------------------------------------|
 G| -----------9------9--9--11--11----------|
 D| 11--11-11-----11------------------------|
 A| ----------------------------------------|
 E| ----------------------------------------|


 E| ----------------------------------111214|
 B| -----------12------12--12--14--14-------|   
 G| 13--13-13------13-----------------------|   
 D| ----------------------------------------|  
 A| ----------------------------------------|   
 E| ----------------------------------------|


 E| -----------12------12--12--14--14-------|
 B| 14--14-14------14-----------------------|
 G| ----------------------------------------|
 D| ----------------------------------------|
 A| ----------------------------------------|
 E| ----------------------------------------|


 E| 16--16-16--19--16--19--19--21--21-------| 
 B| ----------------------------------------|
 G| ----------------------------------------|
 D| ----------------------------------------|
 A| ----------------------------------------|
 E| ----------------------------------------|

BASS RIFF
G| ----------------------------------------|
 D| ----------------------------------------|
 A| ----------------------------------------|
 E| ----------------------12--12--7--7-7-9-9| x1

 G| ----------------------------------------|
 D| ----------------------------------------|
 A| ----------------------------------------|
 E| 9--9--7--3-2-2-2---2//12--12--7--7-7-9-9| x3

-----------------------------------------------------------------------------

BASS LINE 
 G| ----------------------------------------------|
 D| ----------------------------------------------|
 A| ----------------------------------------------|
 E| 9--9--9--9--9--9--9--9--9--9--9--9--9--9--9--9| x 3

when the 2rd one starts the guitar riff starts 

GUITAR INTRO RIFF
 E| ----------------------------------------|
 B| ----------------------------------------|
 G| ----------------------------------------|
 D| ----------------------------------------|
 A| ----------------------------------------|
 E| 9--9--7--3-2-2-2---2//12--12--7--7-7-9-9| x 2

-----------------------------------------------------------------------------

GUITAR RIFF 
 E| 16--16--16--16--1916191619161916--21--21--21--21--21--21--21--21|
 B| ----------------------------------------------------------------|
 G| ----------------------------------------------------------------|
 D| ----------------------------------------------------------------|
 A| ----------------------------------------------------------------|
 E| ----------------------------------------------------------------| x 3

 E| 16--16--16--16--1916191619161916--21----------------------------|
 B| ----------------------------------------------------------------|
 G| ----------------------------------------------------------------|
 D| ----------------------------------------------------------------|
 A| ----------------------------------------------------------------|
 E| ----------------------------------------------------------------| x 1

BASS LINE 
 G| ----------------------------------------------|
 D| ----------------------------------------------|
 A| ----------------------------------------------|
 E| 4--4--4--4--7--7--7--7--9--9--9--9--9--9--9--9| x3

 G| ----------------------------------------------|
 D| ----------------------------------------------|
 A| ----------------------------------------------|
 E| 4--4--4--4--7--7--7--7------------------------| x1

GUITAR LINE
 E| ------------------------------------------------|
 B| ------------------------------------------------|
 G| ------------------------------------------------|
 D| ------------------------------------------------|
 A| ------------------------9-11119-11119-11119-1111|
 E| ------------------------7-9-9-7-9-9-7-9-9-7-9-9-|

then it will be just bass for rest but the guitar can play it together 

BASS LINE
 G| ----------------|
 D| ----------------|
 A| ----------------|
 E| 9--9--7--3-2-2-2| x3

GUITAR LINE
 E| ----------------|
 B| ----------------|
 G| ----------------|
 D| ----------------|
 A| ----------------|
 E| 9--9--7--3-2-2-2| x3

THANX FOR LOOKING
            
Submit corrections

comments powered by Disqus
↑ Back to top | Prodigy Tabs for Invaders Must Die. Lyrics for acoustic guitar and electric guitar. Tablatures and chords are parodies/interpretations of the original songs. You may use it for private study, scholarship, research or language learning purposes only