» » »

Prodigy, Colours Tabs (ver.1)

Artists:  A B C D E F G H I J K L M N O P Q R S T U V W X Y Z # 

Colours Tabs (ver.1)

Prodigy Tabs
Rating:
0/5 (0 votes)
Colours lessons Tabs too difficult? Try these video lessons and learn fast
                tuning=D.a.d.b.e

first off is the intro

e/---------------------------------/        
b/---------------------------------/      
g/---------------------------------/      
d/-88-7-5--88-7-5--88-7-88-7-88-7-5/
a/-88-7-5--88-7-5--88-7-88-7-88-7-5/
D/-88-7-5--88-7-5--88-7-88-7-88-7-5/

The verse

e/---------------------------------------------------------/
b/---------------------------------------------------------/
g/---------------------------------------------------------/
d/---------------------------------888888881010101010101010/
a/---------------------------------888888881010101010101010/
D/-88-7-5--88-7-5--88-7-5--88-7-5--888888881010101010101010/

e/-------------------------------------------------------------------------/
b/-------------------------------------------------------------------------/
g/-------------------------------------------------------------------------/
d/-------------------------------------------------888888881010101010101010/
a/-------------------------------------------------888888881010101010101010/
D/-88-7-5--88-7-5--88-7-5--88-7-5--88-7-5--88-7-5--888888881010101010101010/

Bridge=same as intro

e/-----------------------------------/
b/-----------------------------------/
g/-----------------------------------/
d/-88-7-5--88-7-5--88-7--88-7--88-7-5/
a/-88-7-5--88-7-5--88-7--88-7--88-7-5/
D/-88-7-5--88-7-5--88-7--88-7--88-7-5/

Chorus

e/-----------------------------------------------------------------/
b/-----------------------------------------------------------------/
g/-----------------------------------------------------------------/
d/-5555555588888888777777775555555555555555888888887777777755555555/
a/-5555555588888888777777775555555555555555888888887777777755555555/
D/-5555555588888888777777775555555555555555888888887777777755555555/

e/-------------------------------------------------------------------/
b/-------------------------------------------------------------------/
g/-------------------------------------------------------------------/
d/-888888881010101010101010--88-7-5--88-7-5--888888881010101010101010/
a/-888888881010101010101010--88-7-5--88-7-5--888888881010101010101010/
D/-888888881010101010101010--88-7-5--88-7-5--888888881010101010101010/

e/---------------/        
b/---------------/      
g/---------------/
d/-88-7-5--88-7-5/
a/-88-7-5--88-7-5/
D/-88-7-5--88-7-5/

The verse

e/---------------------------------------------------------/
b/---------------------------------------------------------/
g/---------------------------------------------------------/
d/---------------------------------888888881010101010101010/
a/---------------------------------888888881010101010101010/
D/-88-7-5--88-7-5--88-7-5--88-7-5--888888881010101010101010/

e/-------------------------------------------------------------------------/
b/-------------------------------------------------------------------------/
g/-------------------------------------------------------------------------/
d/-------------------------------------------------888888881010101010101010/
a/-------------------------------------------------888888881010101010101010/
D/-88-7-5--88-7-5--88-7-5--88-7-5--88-7-5--88-7-5--888888881010101010101010/

Bridge=same as intro

e/-----------------------------------/
b/-----------------------------------/
g/-----------------------------------/
d/-88-7-5--88-7-5--88-7--88-7--88-7-5/
a/-88-7-5--88-7-5--88-7--88-7--88-7-5/
D/-88-7-5--88-7-5--88-7--88-7--88-7-5/

Chorus

e/-----------------------------------------------------------------/
b/-----------------------------------------------------------------/
g/-----------------------------------------------------------------/
d/-5555555588888888777777775555555555555555888888887777777755555555/
a/-5555555588888888777777775555555555555555888888887777777755555555/
D/-5555555588888888777777775555555555555555888888887777777755555555/

e/-------------------------------------------------------------------/
b/-------------------------------------------------------------------/
g/-------------------------------------------------------------------/
d/-888888881010101010101010--88-7-5--88-7-5--888888881010101010101010/
a/-888888881010101010101010--88-7-5--88-7-5--888888881010101010101010/
D/-888888881010101010101010--88-7-5--88-7-5--888888881010101010101010/

e/-----------------/
b/-----------------/
g/-----------------/
d/-88-7-88-7-88-7-5/
a/-88-7-88-7-88-7-5/
D/-88-7-88-7-88-7-5/

Bit after chorus

                 32                             32
d/-8888888888888888888888888888888855555555555555555555555555555555/
a/-8888888888888888888888888888888855555555555555555555555555555555/
D/-8888888888888888888888888888888855555555555555555555555555555555/
                               64
d/-8888888888888888888888888888888888888888888888888888888888888888/
a/-8888888888888888888888888888888888888888888888888888888888888888/
D/-8888888888888888888888888888888888888888888888888888888888888888/

d/----------------------------------------/
a/----------------------------------------/
D/-5555555-7-5555555-8-5555555-7-5555555-8/

"SHOW YOUR COLOURS"
d/-----------------------------------------------------------------/
a/-----------------------------------------------------------------/
D/-5555555588888888777777775555555555555555888888887777777755555555/

d/-----------------------------------------------------------------/
a/-----------------------------------------------------------------/
D/-5555555588888888777777775555555555555555888888887777777755555555/

d/-5555555588888888777777775555555555555555888888887777777755555555/
a/-5555555588888888777777775555555555555555888888887777777755555555/
D/-5555555588888888777777775555555555555555888888887777777755555555/

d/-888888881010101010101010--88-7-5--88-7-5--888888881010101010101010/
a/-888888881010101010101010--88-7-5--88-7-5--888888881010101010101010/
D/-888888881010101010101010--88-7-5--88-7-5--888888881010101010101010/

d/-88-7-5--88-7-5--88-7-88-7-88-7-5/
a/-88-7-5--88-7-5--88-7-88-7-88-7-5/
D/-88-7-5--88-7-5--88-7-88-7-88-7-5/
            

comments powered by Disqus
↑ Back to top | Prodigy Tabs for Colours. Lyrics for acoustic guitar and electric guitar. Tablatures and chords are parodies/interpretations of the original songs. You may use it for private study, scholarship, research or language learning purposes only