» » »

Prodigy, Invaders Must Die Bass tabs (ver.1)

Artists:  A B C D E F G H I J K L M N O P Q R S T U V W X Y Z # 

Invaders Must Die Bass tabs (ver.1)

Prodigy Tabs
Rating:
4/5 (10 votes)
Invaders Must Die lessons Tabs too difficult? Try these video lessons and learn fast
                Yo! heres a amazing prodigy song, its got a kick ass riff. this is my
verison of it. sorry if theres any mistakes and some of the notes are
played longer than i tabed. enjoy

normal tuning
G
D
A
E

intro
|--------------------------------------------------|
|--------------------------------------------------|
|-4--4-4-4-4--4--4-4-4-4--4--4-4-4-4--4--4-4-4-4---| Repeat
|--------------------------------------------------|

main riff
|------------------------------------|
|-------------------2--2-------------|
|-4--4--2-----------------2--2-4-4-4-| x4
|----------4-2-2-2-------------------|

verse
|---------------------------------------------|
|---------------------------------------------|
|-4--4--2--------4-4-4-2--------4--4--2-------|
|----------4--2-----------4--2-----------4--2-|

main riff                                 end
|------------------------------------|    |---------------------|
|-------------------2--2-------------|    |---------------------|
|-4--4--2-----------------2--2-4-4-4-| x3 |---------------------|
|----------4-2-2-2-------------------|    |-xx-0-xx-0-xx-0-xx-0-|

2nd verse
|---------------------------------------------------------|
|-------------4-4-----------------------------------------|
|-----------------4-4-4-4-4-4-2-2-2-2-2-2-1-1-4-4-4-4-4-4-|
|-0-0-0-0-0-0---------------------------------------------|

intro to main riff
|-------------------|
|-4--2-2------------|
|---------2-2-4-4-4-|
|-------------------|

main riff
|------------------------------------|    |---------------------|
|-------------------2--2-------------|    |---------------------|
|-4--4--2-----------------2--2-4-4-4-| x2 |---------------------|
|----------4-2-2-2-------------------|    |-xx-0-xx-0-xx-0-xx-0-|

bridge
|---------------------------------|
|-2-2-2-2-2-2-2-2-----------------|
|-----------------4-4-4-4-4-4-4-4-| x2
|---------------------------------|

|---------------------------------|
|-2-2-2-2-------------------------|
|---------2-2-2-2-4-4-4-4-4-4-4-4-| x3
|---------------------------------|

|----------------------------------|
|----------------------------------|
|-4--4--4--4--4-4-44-4-4-44-4-4-44-|
|----------------------------------|

outro
|---------------------------------------------|
|---------------------------------------------|
|-4--4--2--------4-4-4-2--------4--4--2-------|
|----------4--2-----------4--2-----------4--2-|

                                           end
|------------------------------------|    |---------------------|
|-------------------2--2-------------|    |---------------------|
|-4--4--2-----------------2--2-4-4-4-| x3 |---------------------|
|----------4-2-2-2-------------------|    |-xx-0-xx-0-xx-0-xx-0-|

and thats its sorry if theres mistakes please rate and comment :)

A.J
            

comments powered by Disqus
↑ Back to top | Prodigy Bass for Invaders Must Die. Lyrics for acoustic guitar and electric guitar. Tablatures and chords are parodies/interpretations of the original songs. You may use it for private study, scholarship, research or language learning purposes only