>
 >
Shake Your Blood 2

Shake Your Blood 2 Guitar Tabs

Probot - Shake Your Blood 2 chords, tabs, tablatures, lyrics

Guitar lessons | Add/correct | Request | Top 50 tabs Artists:  A B C D E F G H I J K L M N O P Q R S T U V W X Y Z 0-9

Shake Your Blood 2 Guitar Tabs – Probot

CD, Sheet music, Poster

Do you like Shake Your Blood 2? Share with your friends now
Bass TabsBass Tabs v2Bass Tabs v3TabsTabs v2Tabs v3
Probot - Shake Your Blood
feat. Lemmy

abbed By :Loddy

Tuning: Standard D w/ dropped C (CGCFAD)

Intro
D|----------------|----------------|----------------|----------------|
A|----------------|----------------|----------------|----------------|
F|10----------10--|--------10------|10----------10--|--------10------|
C|10----10----10--|--10----10--10--|10----10----10--|--10----10--10--|
G|8-----10----8---|--10----8---10--|8-----10----8---|--10----8---10--|
C|------10--------|--10--------10--|------10--------|--10--------10--|


D|----------------|----------------|----------------|----------------|
A|----------------|----------------|----------------|----------------|
F|----------------|----------------|----------------|----------------|
C|----------------|------------3---|----------------|----------------|
G|5-----5-----5---|--5-----3h5-----|5-----5-----5---|--5-------------|
C|0-----0-----0---|--0-0-0---------|0-----0-----0---|--0-0-0-5p0-3---|

D|----------------|----------------|----------------|----------------|
A|----------------|----------------|----------------|----------------|
F|----------------|----------------|----------------|----------------|
C|----------------|------------3---|----------------|----------------|
G|5-----5-----5---|--5-----3h5-----|5-----5-----5---|--5-----3h5-----|
C|0-----0-----0---|--0-0-0---------|0-----0-----0---|--0-3-5-----3---|


Verse

D|----------------|----------------|----------------|----------------|
A|----------------|----------------|----------------|----------------|
F|----------------|----------------|----------------|----------------|
C|----------------|------------3---|----------------|----------------|
G|----------------|--------3h5-----|----------------|----------------|
C|0---0-0---0-0---|0-0-0-0---------|0---0-0---0-0---|0-0-0-0-5p0-3---|

D|----------------|----------------|----------------|----------------|
A|----------------|----------------|----------------|----------------|
F|----------------|----------------|----------------|----------------|
C|----------------|------------3---|----------------|----------------|
G|----------------|--------3h5-----|----------------|--------3h5-----|
C|0---0-0---0-0---|0-0-0-0---------|0---0-0---0-0---|0-0-0-0-----3---|

D|----------------|----------------|----------------|----------------|
A|----------------|----------------|----------------|----------------|
F|----------------|----------------|----------------|----------------|
C|----------------|------------3---|----------------|----------------|
G|----------------|--------3h5-----|----------------|----------------|
C|0---0-0---0-0---|0-0-0-0---------|0---0-0---0-0---|0-0-0-0-5p0-3---|

D|----------------|----------------|----------------|----------------|
A|----------------|----------------|----------------|----------------|
F|----------------|----------------|----------------|----------------|
C|----------------|------------3---|----------------|----------------|
G|----------------|--------3h5-----|----------------|----------------|
C|0---0-0---0-0---|0-0-0-0---------|0---0-0---0-0---|0-0-0---0-0-0---|


Chorus

D|----------------|----------------|----------------|----------------|
A|----------------|----------------|----------------|----------------|
F|----------------|----------------|----------------|----------------|
C|3-----3-----3---|----------------|3-----3-----5---|----------------|
G|3-----3-----3---|----------------|3-----3-----5---|----------------|
C|3-----3-----3---|----------------|5-----5-----5---|----------------|

D|----------------|----------------|----------------|----------------|
A|----------------|----------------|----------------|----------------|
F|----------------|----------------|----------------|----------------|
C|----------------|----------------|----------------|----------------|
G|5-----5-----5---|--5-------------|5-----5-----5---|--5-------------|
C|0-----0-----0---|--0-0-0-5p0-3---|0-----0-----0---|--0-0-0-5p0-3---|

D|----------------|----------------|----------------|----------------|
A|----------------|----------------|----------------|----------------|
F|----------------|----------------|----------------|----------------|
C|3-----3-----3---|----------------|3-----3-----5---|----------------|
G|3-----3-----3---|----------------|3-----3-----5---|----------------|
C|3-----3-----3---|----------------|5-----5-----5---|----------------|

D|----------------|----------------|----------------|----------------|
A|----------------|----------------|----------------|----------------|
F|----------------|----------------|----------------|----------------|
C|----------------|------------3---|----------------|------------3---|
G|5-----5-----5---|--5-----3h5-----|5-----5-----5---|--5-----3h5-----|
C|0-----0-----0---|--0-0-0---------|0-----0-----0---|--0-0-0---------|


Last line of 1st chorus
D|----------------|----------------|----------------|----------------|
A|----------------|----------------|----------------|----------------|
F|----------------|----------------|10----------10--|--------10------|
C|----------------|------------3---|10----10----10--|--10----10--10--|
G|5-----5-----5---|--5-----3h5-----|8-----10----8---|--10----8---10--|
C|0-----0-----0---|--0-0-0---------|------10--------|--10--------10--|





Comments


Popular Probot tabs & chords
Shake Your Blood Bass Tabs
Shake Your Blood 2 Bass Tabs
Access Babylon Tabs
Centuries Of Sin Tabs
Centuries Of Sin 1 Tabs
I Am The Warlock Tabs
Ice Cold Man Tabs
Red War Tabs
Shake Your Blood 1 Tabs
Silent Spring Tabs


Song lyrics



↑ Back to top | Tablatures and chords are parodies/interpretations of the original songs. You may use it for private study, scholarship, research or language learning purposes only
© 2014 AZChords.com Contact us | Privacy policy | DMCA | Add/correct tabs | Request tabs | Top 50 tabs