>
 >
Shake Your Blood

Shake Your Blood Guitar Tabs

Probot - Shake Your Blood chords, tabs, tablatures, lyrics

Guitar lessons | Add/correct | Request | Top 50 tabs Artists:  A B C D E F G H I J K L M N O P Q R S T U V W X Y Z 0-9

Shake Your Blood Guitar Tabs – Probot

CD, Sheet music, Poster

Do you like Shake Your Blood? Share with your friends now
Bass TabsBass Tabs v2Bass Tabs v3TabsTabs v2Tabs v3
-------------------------------------------------------------------------------
-------------------------------------------------------------------------------


Tuning: (low to high) C G C F A C

I got most of this from the Guitar Pro version of this tab, because it's pretty
much absolutely correct, but I don't like to have to download a tab every time 
I want to play a song, so I figured I'd make one for people in ASCII. 
There were only a few minor errors, which I patched up. Enjoy!

Intro
e|--------------|
B|--------------|
G|-5---5----5---|
D|-3-5-3-5--3-5-|
A|---3---3----3-|
E|--------------|

Verse
e|-------------------------------------------------------------------------------------|
B|-------------------------------------------------------------------------------------|
G|-------------------------------------------------------------------------------------|
D|-----------------3-----------------------------------------3-------------------------|
A|-5---5---5---3h5---5---5---5---------------5---5---5---3h5---5---5---5-------3h5-----|
E|-0-0-0-0-0-0-------0-0-0-0-0-0-3-0-5-0-3-0-0-0-0-0-0-0-------0-0-0-0-0-0-3h5-----3h5-|

Chorus
e|--------------------------------------------------------------->
B|--------------------------------------------------------------->
G|--------------------------------------------------------------->
D|--------------------------------------------------------------->
A|-3-3-3--5-5-5--5---5---5---------------5---5---5--------------->
E|-3-3-3--3-3-5--0-0-0-0-0-0-3-0-5-0-3-0-0-0-0-0-0-0-3-0-5-0-3-0->

Chorus cont'd
e|---------------------------------------------------------------------------------------|
B|---------------------------------------------------------------------------------------|
G|---------------------------------------------------------------------------------------|
D|-------------------------------3-----------------3-----------------3-----------------3-|
A|-3-3-3--5-5-5--5---5---5---3h5---5---5---5---3h5---5---5---5---3h5---5---5---5---3h5---|
E|-3-3-3--3-3-5--0-0-0-0-0-0-------0-0-0-0-0-0-------0-0-0-0-0-0-------0-0-0-0-0-0-------|

Bridge
e|-----------------------------------|
B|-----------------------------------|
G|-----------7-7-7-7-7--5---5----5---|
D|-7-7-7-7-7-5-5-5-5-5--3-5-3-5--3-5-|
A|-5-5-5-5-5--------------3---3----3-|
E|-----------------------------------|

End on (low to high) X57XXX

RIFF PLACEMENT

INTRO X2
VERSE X4
CHORUS
INTRO
VERSE X2
CHORUS
BRIDGE X4
INTRO
bass solo
CHORUS X2
INTRO X2

| /  slide up
| \  slide down
| h  hammer-on
| p  pull-off
| ~  vibrato
| +  harmonic
| x  Mute note
===============================================================================





Comments


Popular Probot tabs & chords
Shake Your Blood Bass Tabs
Shake Your Blood 2 Bass Tabs
Big Sky Tabs
Centuries Of Sin Tabs
Emerald Law Tabs
I Am The Warlock Tabs
Ice Cold Man Tabs
Shake Your Blood 1 Tabs
Shake Your Blood 2 Tabs
Sweet Dreams Tabs


Song lyrics



↑ Back to top | Tablatures and chords are parodies/interpretations of the original songs. You may use it for private study, scholarship, research or language learning purposes only
© 2014 AZChords.com Contact us | Privacy policy | DMCA | Add/correct tabs | Request tabs | Top 50 tabs