>
 >
Shake Your Blood

Shake Your Blood Bass Tabs

Probot - Shake Your Blood chords, tabs, tablatures, lyrics

Guitar lessons | Add/correct | Request | Top 50 tabs Artists:  A B C D E F G H I J K L M N O P Q R S T U V W X Y Z 0-9

Shake Your Blood Bass Tabs – Probot

CD, Sheet music, Poster

Do you like Shake Your Blood? Share with your friends now
Bass TabsBass Tabs v2Bass Tabs v3TabsTabs v2Tabs v3
Title-Shake Your Blood
Artist-Probot ft. Lemmy
Bassist-Lemmy

This is my first tab and my first attempt to I doubt it will be 100% but it comes very 
so figure out what your unsure on...

Intro pt 1
G|------------------|
D|------------------|
A|-5-5-55-5-5------|
E|--5-5-55-5-5-----|

Intro pt 2/verse
G|-----------------|
D|-----------------|
A|---------------5-|
E|-777777-5h7------|

Verse-2nd version
G|-------------------------------------|
D|-------------------------------------|
A|-----------------------------7-5-----|
E|-777777-7777--777777-----5-----------|

G|-------------------------------------|
D|-------------------------------------|
A|-------------------------------------|
E|-777777-7777--777777-575-------------|

G|-------------------------------------|
D|-------------------------------------|
A|----------------------------5-7------|
E|-777777-7775--777777----5------------|

G|-------------------------------------|
D|-------------------------------------|
A|-------------------------------------|
E|-777777-7777--777777-575-------------|

Chorus
G|----------------------------------------------------------------------|
D|----------------------------------------------------------------------|
A|-5-5-57-7-7--------5--7-5----5-5-5--7-7-7-----5----7p5---------------|
E|---------------------5-7--------7------------------5h7--7------77-----|

Post-Chorus
G|-------------------------|
D|-------------------------|
A|----------------5-5-5----|
E|-777777-5h7--5-5-5-------|

Bridge pt 1
G|-------------------------------|
D|-------------------------------|
A|----------777777--5-5-5--------|
E|-777777------------5-5-5-------|

Bridge pt 2
G|---------------------------------------|
D|---------------------------------------|
A|----------777777--5-5-5--5-5-5---------|
E|-777777------------5-5-55-5-5---------|

Solo (I may be a bit ambitious at trying to tab this, but I know some of it is right...)
Pt 1
G|--------------------------------------------|
D|--------------------------------------------|
A|--------7/99999-----------------------------|
E|-77777-----------5h77777-5h77777------------|
Pt 2
G|-----------------------|
D|-7h997h9-7h997h9-------|
A|-----------------------|
E|-----------------------|

Pt3
G|-------------------------------------------------------------------------------|
D|-7h997h9-7h997h9-7h997h9-7h997h9987-99887-987-7-------------------------------|
A|----------------------------------------------------------------------9-7-5----|
E|-------------------------------------------------------------------------------|
Outro
G|---------------------|
D|---------------------|
A|-5-0-5-0-5-0---------|
E|---------------7////-|


Order of play:
Intro pt1 x1
Intro pt2 x8
Verse x8
Chorus x1
Post-Chorus x1
Verse x8
Chorus x1
Verse x2
Bridge pt1 x3
Bridge pt2 x1
Solo pt 1 x1
Solo pt 2 x3
Solo pt 3 x1
Verse (2nd version) x1
Chorus x1
Verse x1
Outro x1





Comments


Popular Probot tabs & chords
I Am The Warlock Bass Tabs
Access Babylon Tabs
Big Sky Tabs
Centuries Of Sin Tabs
Centuries Of Sin 1 Tabs
Centuries Of Sin 2 Tabs
Emerald Law Tabs
I Am The Warlock Tabs
Shake Your Blood Tabs
Sweet Dreams Tabs


Song lyrics



↑ Back to top | Tablatures and chords are parodies/interpretations of the original songs. You may use it for private study, scholarship, research or language learning purposes only
© 2014 AZChords.com Contact us | Privacy policy | DMCA | Add/correct tabs | Request tabs | Top 50 tabs