» » »

Primus, Wynona's Big Brown Beaver Bass tabs (ver.2)

Artists:  A B C D E F G H I J K L M N O P Q R S T U V W X Y Z # 

Wynona's Big Brown Beaver Bass tabs (ver.2)

Primus Tabs
4/5 (4 votes)
Wynona's Big Brown Beaver lessons Tabs too difficult? Try these video lessons and learn fast
                Here is another Les Claypool tab:    N.C.(D)
(x is a death note)

G -----------7-10-7---10-9--------------14-------19
D -0-0-7-(9)--------0------12-10-0-0/12-----0/17---
A -------------------------------------------------
E -----------------------------------------x-------

G ---------7-10-7-----10-9--------------14-9-0-5
D -0-0-7-9--------(0)------12-10-0-0/12---------
A ----------------------------------------------
E ----------------------------------------------
Submit corrections

comments powered by Disqus
↑ Back to top | Primus Bass for Wynona's Big Brown Beaver. Lyrics for acoustic guitar and electric guitar. Tablatures and chords are parodies/interpretations of the original songs. You may use it for private study, scholarship, research or language learning purposes only