>
 >
Nature Boy

Nature Boy Bass Tabs

Primus - Nature Boy chords, tabs, tablatures, lyrics

Guitar lessons | Add/correct | Request | Top 50 tabs Artists:  A B C D E F G H I J K L M N O P Q R S T U V W X Y Z 0-9

Nature Boy Bass Tabs – Primus

CD, Sheet music, Poster

Do you like Nature Boy? Share with your friends now
Bass TabsBass Tabs v2Tabs
Music by Primus, Words by Les Claypool

__________________________________________________
--------------------------------------------------
"Nature Boy" from "Pork Soda"
__________________________________________________
--------------------------------------------------

	For the intro and verse riff, both notes are vibratos, about 3/4 to
1 whole step.  The chorus is strummed, except for the last 3 notes, which are

plucked.  For the rest at the interlude, Les fiddles with distortion for a
bit. 
|-------|
|--|9|--|
|-------|
|-------|

Intro + Verse:
		   20 times
|------------------|
|*----------------*|
|*--6-------------*|
|-----------7------|


Chorus:
			8 times
|---9---8--8-8-8\-------------|
|*--9---8--8-8-8\------------*|
|*--7---6--6-6-6\------------*|
|------------------7-7-7------|

Verse 2:
		  8 times
|------------------|
|*----------------*|
|*--6-------------*|
|-----------7------|

Chorus 2:
			12 times
|---9---8--8-8-8\-------------|
|*--9---8--8-8-8\------------*|
|*--7---6--6-6-6\------------*|
|------------------7-7-7------|

		16 times
|------------------|
|*----------------*|
|*--6-------------*|
|-----------7------|

			     7 times
|---9---8--8-8-8\-------------|
|*--9---8--8-8-8\------------*|
|*--7---6--6-6-6\------------*|
|------------------7-7-7------|

Interlude:
|---------|
|-|9 1/2|-|
|---------|
|---------|

*&*
|-------------------------------|--------------------8----|
|*--------------------------8---|------------------8-----*|
|*--6--6-6--6-6-6-6--6--6-6---6-|--6--6-6-4-6--6-6-------*|
|-------------------------------|-------------------------|

		     Go to *&*
|--------------------||
|--------------------||
|---6-4---------4----||
|-------6-4-0-6------||

								  5 times
|-------8---6-8h------8---9--|------8---6-8h--8-8-8-9-9-9-11-11-11-|
|*----8---8---------8-----9--|----8---8---------------------------*|
|*--6-------------6-----7----|--6---------------------------------*|
|----------------------------|-------------------------------------|



|---8-6---------------|
|-------8-6-4-6-4-----|
|-----------------4-6-|
|---------------------|


|-------------------------------|--------------------8----|
|*--------------------------8---|------------------8-----*|
|*--6--6-6--6-6-6-6--6--6-6---6-|--6--6-6-4-6--6-6-------*|
|-------------------------------|-------------------------|

		     
|--------------------|
|--------------------|
|---6-4---------4----|
|-------6-4-0-6------|

|---8-------|-8-------|-8-8-8-----|-8-8-8------|
|*--8-------|-8-------|-8-8-8-----|-8-8-8-----*|
|*--6-------|-8-------|-6-6-6-----|-6-6-6-----*|
|-----------|---------|-----------|------------|

|-------8---8---------8---8---------------|
|-----8---8---8-----8---8---8--7----------|
|---6-------------6-----------------12\---|
|-----------------------------------------|

|-------8---8---------8---8---------------|---------------------|
|-----8---8---8-----8---8---8--7----------|---------------------|
|---6-------------6-----------------12\---|-12------------------|
|-----------------------------------------|---------------------|

     
|--12-12-14-12----12----------|-------|
|--------------14----14-12----|-| 2 |-|
|--------------------------12-|-------|
|-----------------------------|-------|

			      25 times
|---9---8--8-8-8\-------------|
|*--9---8--8-8-8\------------*|
|*--7---6--6-6-6\------------*|
|------------------7-7-7------|



			 6 times
|--X--X-X-X--X-X-X-9\----|
|*-X--X-X-X--X-X-X-9\---*|
|*-X--X-X-X--X-X-X-7\---*|
|--X--X-X-X--X-X-X-------|





Comments


Popular Primus tabs & chords
Cpt Shiner Bass Tabs
Del Davis Tree Farm 2 Bass Tabs
My Name Is Mud 1 Bass Tabs
Over The Electic Grapevine Bass Tabs
Over The Falls 2 Bass Tabs
Professor Nutbutter 3 Bass Tabs
Sgt Baker 5 Bass Tabs
Welcome To This World 2 Bass Tabs
On The Tweek Again Chords
Duchess And The Proverbial Mind Spread Tabs


Song lyrics



↑ Back to top | Tablatures and chords are parodies/interpretations of the original songs. You may use it for private study, scholarship, research or language learning purposes only
© 2014 AZChords.com Contact us | Privacy policy | DMCA | Add/correct tabs | Request tabs | Top 50 tabs