» » »

Primus, Mephisto & Kevin Bass tabs (ver.1)

Artists:  A B C D E F G H I J K L M N O P Q R S T U V W X Y Z # 

Mephisto & Kevin Bass tabs (ver.1)

Primus Tabs
 Rating:
4/5 (4 votes)
Mephisto & Kevin lessons Tabs too difficult? Try these video lessons and learn fast
1
                Note:    I am not sure how the Chorus goes, so if its
	 This tab is rough and not note perfect. 

#Tab Key#
      h - hammer on 
      p - pull off 
      b - bend string up
      r - release bend
      / - slide up
      \ - slide down
      v - vibrato (sometimes written as ~)
      t - right hand tap
      x - play 'note' with heavy damping


Here is this song is in bits. Hope you want work through it


#INTRO BITS# (All Part are slapped)

Intro - Part 1
G|--9-----9---------------------|
D|----8-9-----------------------|
A|------------------------------|
E|------------------------------|

Intro - Part 2
G|--9-----9--9h11----9h11-------|
D|----8-9-----------------------|
A|------------------------------|
E|------------------------------|

Intro - Part 3
G|--9-----9---------------------|
D|----8-9----9h11-9h11-9h11-9h11|
A|------------------------------|
E|------------------------------|

Intro - Part 4
G|--9-----9---------------------|
D|----8-9-----------------------|
A|------------------------------|
E|------------2/6---------------|


#VERSE BITS# (Most part are not slapped, except the heavy bits which are slapped)

Verse Variation - Part 1
G|------------------------------|
D|--8-8------8-8-8------8------8|
A|------9/10-------9/10---9/10--|
E|------------------------------|

Verse Variation - Part 2
G|------------------------------|
D|--8-8------8-8-8-------------8|
A|------9/10-------9/10--9/10---|
E|------------------------------|

Verse Variation - Part 3
G|-----------------------------------------|
D|--8-8------8-8-8------8------10/11-10----|
A|------9/10-------9/10---9/10----------10-|
E|-----------------------------------------|

Verse Variation - Part 4
G|-------------------------------------|
D|--8-8------8-8-8------8------8-10-12-|
A|------9/10-------9/10---9/10---------|
E|-------------------------------------|

Verse High bit - Part 1
D|--10-10-------10-10-10-------10-------10-|
A|--------11/12----------11/12----11/12----|
E|-----------------------------------------|
E|-----------------------------------------|

Verse High bit - Part 2
D|--10-10-------10-10-10-------10-------12-10-------|
A|--------11/12----------11/12----11/12-------12-10-|
E|--------------------------------------------------|
E|--------------------------------------------------|

Verse Heavy Bit - Part 1
G|--10------10-------------------|
D|-----9-10----------------------|
A|-------------3-4-5-4-3---------|
E|-----------------------5-4-3-2-|

Verse Heavy Bit - Part 2
G|--5-----5--------------------|
D|----4-5----------------------|
A|-----------4-5-6-5-4---------|
E|---------------------6-5-4-3-|

Verse Heavy Bit - Part 3
G|--5-----5--5-----5--5-----5---|
D|----4-5------4-5------4-5-----|
A|------------------------------|
E|------------------------------|


#BRIDGE# (This part is slapped)

Bridge Before Chorus (Bits Chef Sings)
G|--9-----9---------------------|
D|----8-9----3-4-5-4-3----------|
A|--------------------5-4-3-2---|
E|------------------------------|


#CHORUS# (This part is not slapped)
G|--17----14------15-----14--14-|
D|--15----15------15-----15--15-|
A|------------------------------|
E|------------------------------|
            
Submit corrections

comments powered by Disqus
↑ Back to top | Primus Bass for Mephisto & Kevin. Lyrics for acoustic guitar and electric guitar. 1 Tablatures and chords are parodies/interpretations of the original songs. You may use it for private study, scholarship, research or language learning purposes only