>
 >
Master Of Puppets 2

Master Of Puppets 2 Bass Tabs

Primus - Master Of Puppets 2 chords, tabs, tablatures, lyrics

Guitar lessons | Add/correct | Request | Top 50 tabs Artists:  A B C D E F G H I J K L M N O P Q R S T U V W X Y Z 0-9

Master Of Puppets 2 Bass Tabs – Primus

CD, Sheet music, Poster

Do you like Master Of Puppets 2? Share with your friends now
Bass TabsBass Tabs v2Bass Tabs v3Bass Tabs v4Bass Tabs v5Bass Tabs v6Bass Tabs v7Tabs
Master of puppets (metallica cover) - Primus


AIM - XbrilliantfoolX

Standard tuning on a 4 string bass - EADG

-----------------------

Ok, if you know of primus' connection to Metallica than you should know why Primus randomly plays Metallica songs... well, 

they play them in a very Primus way. This is basically just primus' take on metallica's song "master of puppet's", a kick ass 

song as is. The whole thing lasts for just over a minute, it's just a cover of the intro... But it's still pretty sweet ;-)

As far as tone goes you'll want a generous amount of treble, but not much mid, your looking for a snappy, dry tone. Also, 

make sure to keep your bass at a minimum; you want to rumble, but you don't want your amp to start farting seeing as you will 

need be play this H-A-R-D, especially if you want the last notes to sound halfway decent. As far as timing goes, the bass 

part to this song is almost identical to the guitar intro in the actual song, so just listen to that, or get the video/audio 

file off of kazaa... I highly recommend getting the video.

As with most primus songs, you should have good slap and pop technique before you try playing this, you'll also need quite a 

bit of dexterity and slapping speed to be able to play this song accurately. Enjoy.

-----------------------

Key

~ - Vibrato.

S - Slap.

P - Pluck.

h - hammer-on.

p - pulloff.

^ - Flamenco pick. (you only use downstrokes in this song).

X - Muted note.

/ - Slide up.

\ - Slide down.

* - Special technique, read directions under the bar.

-----------------------

Riff A

      
G|----------------------------------------------------------
D|----------------------------------------------------------
A|-----------12*/15\X---------------------------------------
E|-h7/12~~~--12*/15\X---------------------------------------

  
(for the above * what you do is hit the two top strings with your index finger just hard enough to sound a note, than quickly 

slide up to 15th fret and down to near the 7th fret and mute the note, if you have the video you'll easily be able to see 

what i'm saying.)

----

Riff B

                        ^ ^ ^
G|----------------------7-6-5-------------------------------
D|----------------------7-6-5-------------------------------
A|-----7p0-----6p0------5-4-3------2p0-----1p0-----0--------
E|*X-X-----X-X-----X-X---------X-X-----X-X-----X-X---3-2/12-
   S S P   S S P   S S         S S P   S S P   S S P S S

                            
(Just plop your thumb down on the E string to mute every note like this one)

----

Riff C

G|----------------------------------------------------------
D|----------------------------------------------------------
A|-----2p0-----3p0-----4p0-----3p0-----2-2------------------
E|-X-X-----X-X-----X-X-----X-X-----X-X----------------------
   S S P   S S P   S S P   S S P   S S P S

G|----------------------------------------------------------
D|----------------------------------------------------------
A|-----2p0-----3p0------------------------------------------
E|-X-X-----X-X-----3p2p0-3p2p0-3p2--------------------------
   S S P   S S P   S     S     S

----

Riff D 

G|----------------------------------------------------------
D|----------------------------------------------------------
A|-----2p0-----3p0-----4p0-----3p0-----2p0------------------
E|-X-X-----X-X-----X-X-----X-X-----X-X----------------------
   S S P   S S P   S S P   S S P   S S P

                                       ^
G|-------------------------------------4--------------------
D|-------------------------------------4--------------------
A|-----2p0-----3p0-----4p0-----3p0-----2--------------------
E|-X-X-----X-X-----X-X-----X-X-----X-X----------------------
   S S P   S S P   S S P   S S P   S S  

G|----------------------------------------------------------
D|----------------------------------------------------------
A|-----2p0-----3p0-----4p0-----3p0-----2-2------------------
E|-X-X-----X-X-----X-X-----X-X-----X-X----------------------
   S S P   S S P   S S P   S S P   S S S P


G|----------------------------------------------------------
D|----------------------------------------------------------
A|-----2p0-----3p0------------------------------------------     
E|-X-X-----X-X-----3p2p0-3p2p0-3p2--------------------------
   S S P   S S P   S     S     S

----

Riff E


G|----------------------------------------------------------
D|----------------------------------------------------------
A|-----2p0-----3p0-----4p0-----3p0-----2p0------------------
E|-X-X-----X-X-----X-X-----X-X-----X-X----------------------
   S S P   S S P   S S P   S S P   S S P

                                       ^
G|-------------------------------------4--------------------
D|-------------------------------------4--------------------
A|-----2p0-----3p0-----4p0-----3p0-----2--------------------
E|-X-X-----X-X-----X-X-----X-X-----X-X----------------------
   S S P   S S P   S S P   S S P   S S  

G|----------------------------------------------------------
D|----------------------------------------------------------
A|-----2p0-----3p0-----4p0-----3p0-----2-2------------------
E|-X-X-----X-X-----X-X-----X-X-----X-X----------------------
   S S P   S S P   S S P   S S P   S S S P


G|----------------------------------------------------------
D|----------------------------------------------------------
A|-----2p0-----3p0------------------------------------------     
E|-X-X-----X-X-----3p2p0-3p2p0-3p2-3p2p0-3p2p0-3p2----------
   S S P   S S P   S     S     S   S     S     S


G|--------15-------15-------15-------15-------15------------
D|--14-14----14-14----14-14----14-14----14-14---------------
A|----------------------------------------------------------  
E|-----------------------------------------------10\0*------
    S  S  P  S  S  P  S  S  P  S  S  P  S  S  P  S 


(This note is actually Les playing an D, 10th fret, and bottoming out his tremelo; seeing as most of us don't have a tremelo on our bass you could just slide down from the 10 and let the note die, that's what I do and it sounds fine)

-----------------------

Order

Riff A x 1

Riff B x 4

Riff C x 2

Riff D x 1

Riff E x 1

-----------------------

Have a pleasant day :-)





Comments


Popular Primus tabs & chords
Mr. Knowitall 1 Bass Tabs
Mrs Blaileen Bass Tabs
My Name Is Mud 4 Bass Tabs
Over The Electric Grapevine 2 Bass Tabs
Pudding Time 2 Bass Tabs
Silly Putty Bass Tabs
Southbound Pachydermb Bass Tabs
Del Davis Tree Farm Tabs
Devil Went Down To Georgia Tabs
Wynona's Big Brown Beaver Tabs


Song lyrics



↑ Back to top | Tablatures and chords are parodies/interpretations of the original songs. You may use it for private study, scholarship, research or language learning purposes only
© 2014 AZChords.com Contact us | Privacy policy | DMCA | Add/correct tabs | Request tabs | Top 50 tabs