» » »

Primus, Kalamazoo Tabs (ver.1)

Artists:  A B C D E F G H I J K L M N O P Q R S T U V W X Y Z # 

Kalamazoo Tabs (ver.1)

Primus Tabs
 Rating:
4/5 (4 votes)
Kalamazoo lessons Tabs too difficult? Try these video lessons and learn fast
                Artist- Primus
Song- Kalamazoo


OK I dunno what effect he uses i think he has a roland midi effect board
one of the big tank things I don't have money for that so i use a 
phaser (flanger works ok too) and Mid. Dist.

ok the main riff is

e|---------------------------------
B|----------------------21---------
G|-19h20-20-20-19-20-19------------
D|-------------------------21------
A|---------------------------------
E|---------------------------------

e|-----------------------------------------------
B|----------------------21-20-21-21/22-21-20-----
G|-19h20-20-20-19-20-19----------------------21--
D|-----------------------------------------------
A|-----------------------------------------------
E|-----------------------------------------------
    
                (Variable Ending)
e|-----------------------------------------------
B|----------------------21-20-21-20-21-20--------
G|-19h20-20-20-19-20-19--------------------------
D|-----------------------------------------------
A|-----------------------------------------------
E|-----------------------------------------------
The Solo IS like Impossible to tab so if anyone can and email to me 
i would be really grateful for now heres a lil solo i made up to 
fill it when i play Hey i dunno how well it fits but eh .



e|------------------------------------------
B|/12-10-11-10-12-10-----------------10-----
G|-------------------12-11-10-9h10p9--------
D|------------------------------------------
A|
E|

e|--------------------  ^  (      play fast    )
B|----------------------8--12-12-12-12-12-12-12                 
G|/5-7-----------------------------------------
D|------7-6-5-----5h6h7------------------------
A|------------7h5------------------------------
E|
 I dunno it sounds ok very plain though

Outro (inline wiht the drums )
  
VERY FUZZY DIST.
  P.M. Whole Riff  
e|--------------------------
B|--------------------------
G|--------------------------
D|--------------------------
A|--------------------------
E|0h1p0-0h1p0-2-0h1p0-0h1p0- 



OK thats it Its pretty cr*p but eh I tried   
chat to a hardcore primus fan and a grunge one too! )
            
Submit corrections

comments powered by Disqus
↑ Back to top | Primus Tabs for Kalamazoo. Lyrics for acoustic guitar and electric guitar. Tablatures and chords are parodies/interpretations of the original songs. You may use it for private study, scholarship, research or language learning purposes only