>
 >
Kalamazoo

Kalamazoo Bass Tabs

Primus - Kalamazoo chords, tabs, tablatures, lyrics

Guitar lessons | Add/correct | Request | Top 50 tabs Artists:  A B C D E F G H I J K L M N O P Q R S T U V W X Y Z 0-9

Kalamazoo Bass Tabs – Primus

CD, Sheet music, Poster

Do you like Kalamazoo? Share with your friends now
Bass TabsBass Tabs v2Tabs
Intro:  x4
C-------------------------|
G-------------------------|
D-------------------------|
A-----------------------x-|
E--------------0-0--------|
B-0-0-0--0--0-------0-0---|
  s s s  s  s  s s  s s p

Chorus
   V ^        V ^         V  V ^         V ^
C--7-7--------x-7---------9--7-7---------x-7----------|
G--7-7--------x-7---------9--7-7---------x-7----------|
D-----------------------------------------------------|
A-----------------------------------------------------|
E----------6---------0h7--------------6---------0h7---|
B------7h9---------7--------------7h9---------7-----7-|
       s   s       s s            s   s       s s   s

   V ^        V ^         V  V ^         V ^
C--7-7--------x-7---------9--7-7---------x-7-|
G--7-7--------x-7---------9--7-7---------x-7-|
D--------------------------------------------|
A--------------------------------------------|
E----------6---------0h7--------------6------|
B------7h9---------7--------------7h9--------|
       s   s       s s            s   s


Verse
   V        V ^        V  V        V ^
C--7--------x-7--------9--7--------x-7-------|
G--7--------x-7--------9--7--------x-7-------|
D--------------------------------------------|
A--------------------------------------------|
E------x-7--------x-7---------x-7--------x-7-|
B--------------------------------------------|
       s s        s s         s s        s s

   V        V ^        V  V        V ^
C--7--------x-7--------9--7--------x-7-|
G--7--------x-7--------9--7--------x-7-|
D--------------------------------------|
A--------------------------------------|
E------x-7--------x-7---------x-7------|
B--------------------------------------|
       s s        s s         s s


Bridge/Guitar Solo:
   V ^        V ^         V  V ^         V ^
C--7-7--------x-7---------9--7-7---------x-7----------|
G--7-7--------x-7---------9--7-7---------x-7----------|
D-----------------------------------------------------|
A-----------------------------------------------------|
E----------6---------0h7--------------6---------0h7---|
B------7h9---------7--------------7h9---------7-----7-|
       s   s       s s            s   s       s s   s

   V V        V ^         V  V ^         V ^
C--7-7--------x-7---------9--7-7---------x-7-|
G--7-7--------x-7---------9--7-7---------x-7-|
D--------------------------------------------|
A--------------------------------------------|
E----------6---------0h7--------------6------|
B------7h9---------7--------------7h9--------|
       s   s       s s            s   s

   V ^         V ^         V   V ^          V ^
C--9-9---------x-9---------11--9-9----------x-9----------|
G--9-9---------x-9---------11--9-9----------x-9----------|
D--------------------------------------------------------|
A--------------------------------------------------------|
E-----------8---------0h9----------------8---------0h9---|
B------9h11---------9---------------9h11---------9-----9-|
       s    s       s s             s    s       s s   s

   V ^         V ^         V   V ^          V ^  V  ^ V
C--9-9---------x-9---------11--9-9----------x-11-10-9-8-|
G--9-9---------x-9---------11--9-9----------x-11-10-9-8-|
D-------------------------------------------------------|
A-------------------------------------------------------|
E-----------8---------0h9----------------8--------------|
B------9h11---------9---------------9h11----------------|
       s    s       s s             s    s

   V        V ^        V  V        V ^
C--7--------x-7--------9--7--------x-7-------------|
G--7--------x-7--------9--7--------x-7-------------|
D---------------------------------------x--x--x--x-|
A--------------------------------------------------|
E------x-7--------x-7---------x-7--------xx-xx-xx--|
B--------------------------------------------------|
       s s        s s         s s       psspsspssp

   V ^        V ^        V  ^        V ^
C--7-7--------x-7--------9--7--------x-7-|
G--7-7--------x-7--------9--7--------x-7-|
D----------------------------------------|
A----------------------------------------|
E--------x-7--------x-7---------x-7------|
B----------------------------------------|
         s s        s s         s s

Outro
C-------------------------|---------------------------------16-|
G-------------------------|---------------------------------16-|
D-------------------------|------------------------------------|
A-----------------------x-|------------------------------------|
E--------------0-0--------|------------------------------------|
B-0-0-0--0--0-------0-0---|-12-12-12--12--12--12-12--12-12-----|
  s s s  s  s  s s  s s p   s  s  s   s   s   s  s   s  s   p

                                  V  ^  V   ^   V  ^
C---------------------------------16-16-16--16--16-16-|
G---------------------------------16-16-16--16--16-16-|
D-----------------------------------------------------|
A-----------------------------------------------------|
E-----------------------------------------------------|
B-12-12-12--12--12--12-12--12-12----------------------|
  s  s  s   s   s   s  s   s  s





Comments


Popular Primus tabs & chords
Del Davis Tree Farm Bass Tabs
Mama Didn't Raise No Fool Bass Tabs
My Name Is Mud 2 Bass Tabs
The Carpenter And The Dainty Bride Bass Tabs
The Return Of Sathington Willoughby Bass Tabs
Spegetti Western Drum Tabs
Devil Went Down To Georgia Tabs
Poetry And Prose 1 Tabs
South Park Theme Tabs
Southbound Pachyderm Tabs


Song lyrics



↑ Back to top | Tablatures and chords are parodies/interpretations of the original songs. You may use it for private study, scholarship, research or language learning purposes only
© 2014 AZChords.com Contact us | Privacy policy | DMCA | Add/correct tabs | Request tabs | Top 50 tabs