» » »

Hats Off Tabs (ver.1)

Artists:  A B C D E F G H I J K L M N O P Q R S T U V W X Y Z # 

Hats Off Tabs (ver.1)

Primus
Rating:
0/5 (0 votes)

Hard to play? Try these video lessons and learn fast.
                



Intro:
e-----------------------------------------------------|
B-----------------------------------------------------|
G-2/4--2----------------------------------------------|
D---------4---0h2--0----------------------4---5---6---|
A---------------------2-0----2---3---4------4---5---6-|
E--------------------------2---2---3---4--------------|

Riff:
e------------------------------------------------------------|
B------------------------------------------------------------|
G-----4----------------------------4----------------555-6-7--|
D-4-6----6--0---0---0---0---0--4-6----6--0---0---0--444-5-6--|
A-------------6---6---6---6----------------6---6----666-7-8--|
E------------------------------------------------------------|

Outro (Same As Intro But Ends With):
e-------------|
B-------------|
G---55567-----|
D---44456-----|
A---66678-----|
E-------------|
            
Hard to play? Try these video lessons and learn fast. | Correct




comments powered by Disqus
↑ Back to top | Tablatures and chords are parodies/interpretations of the original songs. You may use it for private study, scholarship, research or language learning purposes only