» » »

Primus, Hamburger Train Bass tabs (ver.1)

Artists:  A B C D E F G H I J K L M N O P Q R S T U V W X Y Z # 

Hamburger Train Bass tabs (ver.1)

Primus Tabs
 Rating:
4/5 (4 votes)
Hamburger Train lessons Tabs too difficult? Try these video lessons and learn fast
                No one else tabbed this song....so i thought i'd do it. Its really hard to get the timing, but keep practising and u'll get it.

I think this is it. In dropped D.

G---------------------------------------------------------------------------
D---------------------------------------------------------------------------
A---------------------------------------------------------------------------
D----x-7-7--------x-12-----x-12\-----x-7-7-------x-12------x-13h14----------

Alternate

G---------------------------------------------------------------------------
D---------------------------------------------------------------------------
A-----t-----------------------------------------t---------------------------
D---777-7-------x-12--------x-12\-----777-7-------x-12------x-13h14---------

Alternate 2
G----------------------12-12----------------------------12-------------
D----------------------12-12----------------------------12-------------
A----------------------------------------------------------------------
D----x-7-7--------x------------12\-----x-7-7-------x-------x-13h14-----

Sometimes a mixture of the two.

Riff 2:

This is the only other riff in the song that I know.

G----------------0---------------------0----|-||--------------
D-------------------------------------------*|-||-------------
A----------------------------t---------------*|-||------------
D--00-0-0-0------0-0-000-0-0--------|-||----0---4h5- (maybe 5h6)

It sounds better.

In one place with riff 2, Les goes to all clicks in the same rhythm.
f it doesn't sound right then play around with it.  Also you gotta
listen to it and play around with the hand muting This is actually a
decently hard song if you're not quick with you're thumb.  I wish you
luck with it.
                PRIMUS ROCK
            
Submit corrections

comments powered by Disqus
↑ Back to top | Primus Bass for Hamburger Train. Lyrics for acoustic guitar and electric guitar. Tablatures and chords are parodies/interpretations of the original songs. You may use it for private study, scholarship, research or language learning purposes only