>
 >
Ground Hog's Day

Ground Hog's Day Bass Tabs

Primus - Ground Hog's Day chords, tabs, tablatures, lyrics

Guitar lessons | Add/correct | Request | Top 50 tabs Artists:  A B C D E F G H I J K L M N O P Q R S T U V W X Y Z 0-9

Ground Hog's Day Bass Tabs – Primus

CD, Sheet music, Poster

Do you like Ground Hog's Day? Share with your friends now
Bass TabsBass Tabs v2Bass Tabs v3
This is strummed with the nails.  Except special bits, i.e. during the Bridge 
and Outro, where it's quite obviously slapped & popped with the chords being
stricken like before. 

Oh, and it's played with regular fingerstyle during the Guitar Solo.



Intro
G|-15----------------------------|
D|-14----------------------------|
A|-15----------------------------|
E|-------------------------------|

G|-15--x--15--x--15h17-15--15--x-|-15--x--15--x-----------15--15-|
D|-14--x--14--x--14----14--14--x-|-14--x--14--x--12--12---13--13-|
A|-15--x--15--x--15----15--15--x-|-15--x--15--x--13--13---14--14-|
E|-------------------------------|-------------------------------|

G|-15--15--x--15-15h17-15--15--x-|-15--x--15--x--15--15---15--15-|
D|-14--14--x--14-14----14--14--x-|-14--x--14--x--12--12---13--13-|
A|-15--15--x--15-15----15--15--x-|-15--x--15--x--13--13---14--14-| x2
E|-------------------------------|-------------------------------|

G|-15--15--x--x--15h17-15--15--x-|-15--x---------15--x---15------|
D|-14--14--x--x--14----14--14--x-|-14--x--13\12--12--x---13/--14-|
A|-15--15--x--x--15----15--15--x-|-15--x---------13--x---14/--15-|
E|-------------------------------|-------------------------------|

G|-15--15--x--15-15h17-15--15--x-|-15--x--15--x-----------15--15-|
D|-14--14--x--14-14----14--14--x-|-14--x--14--x--12--12---13--13-|
A|-15--15--x--15-15----15--15--x-|-15--x--15--x--13--13---14--14-| 
E|-------------------------------|-------------------------------|

G|-15--15--x--x--15h17-15--15--x-|-15--x---------15--x---15------|
D|-14--14--x--x--14----14--14--x-|-14--x--13\12--12--x---13/--14-|
A|-15--15--x--x--15----15--15--x-|-15--x---------13--x---14/--15-|
E|-------------------------------|-------------------------------|


First Verse
G|-15--x--15--x--15h17-15--15--x-|-15--x--15--x-----------15--15-|
D|-14--x--14--x--14----14--14--x-|-14--x--14--x--12--12---13--13-|
A|-15--x--15--x--15----15--15--x-|-15--x--15--x--13--13---14--14-| 
E|-------------------------------|-------------------------------|

G|-15--15--x--15-15h17-15--15--x-|-15--x--15--x--15--15---15--15-|
D|-14--14--x--14-14----14--14--x-|-14--x--14--x--12--12---13--13-|
A|-15--15--x--15-15----15--15--x-|-15--x--15--x--13--13---14--14-| 
E|-------------------------------|-------------------------------|

G|-15--15--x--15-15h17-15--15--x-|-15--x--15--x-----------15--15-|
D|-14--14--x--14-14----14--14--x-|-14--x--14--x--12--12---13--13-|
A|-15--15--x--15-15----15--15--x-|-15--x--15--x--13--13---14--14-| 
E|-------------------------------|-------------------------------|

G|-15--15--x--15-15h17-15--15--x-|-15--x---------15--x---15------|
D|-14--14--x--14-14----14--14--x-|-14--x--13\12--12--x---13/--14-|
A|-15--15--x--15-15----15--15--x-|-15--x---------13--x---14/--15-|
E|-------------------------------|-------------------------------|

G|-12--x--12--x--12--12---12--12-|-12--x--12--x--11--11---11---x-|
D|-11--x--11--x--11--11---11--11-|-11--x--11--x--10--10---10---x-|
A|-12--x--12--x--12--12---12--12-|-12--x--12--x--11--11---11---x-|
E|-------------------------------|-------------------------------|

G|-12--x--12--x--12--12---12--12-|-12--x--12--x--11--11--11--11--|
D|-11--x--11--x--11--11---11--11-|-11--x--11--x--10--10--10--10--|
A|-12--x--12--x--12--12---12--12-|-12--x--12--x--11--11--11--11--|
E|-------------------------------|-------------------------------|


Second Verse
G|-15--x--15--x--15h17-15--15--x-|-15--x--15--x-----------15--15-|
D|-14--x--14--x--14----14--14--x-|-14--x--14--x--12--12---13--13-|
A|-15--x--15--x--15----15--15--x-|-15--x--15--x--13--13---14--14-| 
E|-------------------------------|-------------------------------|

G|-15--15--x-15--15h17-15--15--x-|-15--x--15--x--15--15---15--15-|
D|-14--14--x-14--14----14--14--x-|-14--x--14--x--12--12---13--13-|
A|-15--15--x-15--15----15--15--x-|-15--x--15--x--13--13---14--14-| 
E|-------------------------------|-------------------------------|

G|-15--15--x-15--15h17-15--15--x-|-15--x--15--x-----------15--15-|
D|-14--14--x-14--14----14--14--x-|-14--x--14--x--12--12---13--13-|
A|-15--15--x-15--15----15--15--x-|-15--x--15--x--13--13---14--14-| 
E|-------------------------------|-------------------------------|

G|-15--15--x-15--15h17-15--15--x-|-15--x---------15--x---15------|
D|-14--14--x-14--14----14--14--x-|-14--x--13\12--12--x---13/--14-|
A|-15--15--x-15--15----15--15--x-|-15--x---------13--x---14/--15-|
E|-------------------------------|-------------------------------|

G|-12--x--12--x--12--12---12--12-|-12--x--12--x--11--11---11---x-|
D|-11--x--11--x--11--11---11--11-|-11--x--11--x--10--10---10---x-|
A|-12--x--12--x--12--12---12--12-|-12--x--12--x--11--11---11---x-|
E|-------------------------------|-------------------------------|

G|-12--x--12--x--12--12---12--12-|-12--x--12--x--11---11---11----|
D|-11--x--11--x--11--11---11--11-|-11--x--11--x--10---10---10----|
A|-12--x--12--x--12--12---12--12-|-12--x--12--x--11---11---11----|
E|-------------------------------|-------------------------------|

G|-12--x--12--x--12--12---12--12-|-12--x--12--x--11---11---11--x-|
D|-11--x--11--x--11--11---11--11-|-11--x--11--x--10---10---10--x-|
A|-12--x--12--x--12--12---12--12-|-12--x--12--x--11---11---11--x-|
E|-------------------------------|-------------------------------|

G|-12--x--12--x--12--12---12--12-|-12--x--12--x--11--11--11---11-|
D|-11--x--11--x--11--11---11--11-|-11--x--11--x--10--10--10---10-|
A|-12--x--12--x--12--12---12--12-|-12--x--12--x--11--11--11---11-|
E|-------------------------------|-------------------------------|

G|-15--15--x--x--15h17-15--15--x-|-15--x--15--x-----------15--15-|
D|-14--14--x--x--14----14--14--x-|-14--x--14--x--12--12---13--13-|
A|-15--15--x--x--15----15--15--x-|-15--x--15--x--13--13---14--14-| 
E|-------------------------------|-------------------------------|

G|-15--15--x--x--15h17-15--15--x-|-15--x---------15--x---15------|
D|-14--14--x--x--14----14--14--x-|-14--x--13\12--12--x---13/--14-|
A|-15--15--x--x--15----15--15--x-|-15--x---------13--x---14/--15-|
E|-------------------------------|-------------------------------|

G|-15--15--x--x--15h17-15--15--x-|-15--x--15--x-----------15--15-|
D|-14--14--x--x--14----14--14--x-|-14--x--14--x--12--12---13--13-|
A|-15--15--x--x--15----15--15--x-|-15--x--15--x--13--13---14--14-| 
E|-------------------------------|-------------------------------|

G|-15--15--x--x--15h17-15--15--x-|-15--x---------15--x---15------|
D|-14--14--x--x--14----14--14--x-|-14--x--13\12--12--x---13/--14-|
A|-15--15--x--x--15----15--15--x-|-15--x---------13--x---14/--15-|
E|-------------------------------|-------------------------------|


Third Verse
G|-15--x--15--x--15h17-15--15--x-|-15--x--15--x-----------15--15-|
D|-14--x--14--x--14----14--14--x-|-14--x--14--x--12--12---13--13-|
A|-15--x--15--x--15----15--15--x-|-15--x--15--x--13--13---14--14-| 
E|-------------------------------|-------------------------------|

G|-15--x--15--x--15h17-15--15--x-|-15--x--15--x--15--15---15--15-|
D|-14--x--14--x--14----14--14--x-|-14--x--14--x--12--12---13--13-|
A|-15--x--15--x--15----15--15--x-|-15--x--15--x--13--13---14--14-| 
E|-------------------------------|-------------------------------|

G|-15--15--x--x--15h17-15--15--x-|-15--x--15--x-----------15--15-|
D|-14--14--x--x--14----14--14--x-|-14--x--14--x--12--12---13--13-|
A|-15--15--x--x--15----15--15--x-|-15--x--15--x--13--13---14--14-| 
E|-------------------------------|-------------------------------|

G|-15--15--x--x--15h17-15--15--x-|-15--x---------15--x---15------|
D|-14--14--x--x--14----14--14--x-|-14--x--13\12--12--x---13/--14-|
A|-15--15--x--x--15----15--15--x-|-15--x---------13--x---14/--15-|
E|-------------------------------|-------------------------------|

G|-15--x---15--15--15--x---15--x-|-15--x---15--x---15--15---13---|
D|-14--x---14--14--14--x---14--x-|-14--x---14--x---14--14---11---|
A|-15--x---15--15--15--x---15--x-|-15--x---15--x---15--15---12---|
E|-------------------------------|-------------------------------|


Bridge 
G|-6\--------------------x-x-x-x-|-6\--------------------x-x-x-x-|
D|-6\-----0--------------x-x-x-x-|-6\-----0--------------x-x-x-x-|
A|----------6h7--7--6h7----------|----------6h7--7--6h7----------| x3
E|-------------------------------|-------------------------------|

G|-6\--------------------x-x-x-x-|-6\----------------------0-----|
D|-6\-----0--------------x-x-x-x-|-6\-----0----------------------|
A|----------6h7--7--6h7----------|----------6h7--7--6h7--x----2--|
E|-------------------------------|-------------------------------|

G|-6\--------------------x-x-x-x-|-6\--------------------x-x-x-x-|
D|-6\-----0--------------x-x-x-x-|-6\-----0--------------x-x-x-x-|
A|----------6h7--7--6h7----------|----------6h7--7--6h7----------| x4
E|-------------------------------|-------------------------------|

G|-6\--------------------x-x-x-x-|-6\----------------------0-----|
D|-6\-----0--------------x-x-x-x-|-6\-----0----------------------|
A|----------6h7--7--6h7----------|----------6h7--7--6h7--x----2--| x2
E|-------------------------------|-------------------------------|

G|-6\--------------------x-x-x-x-|-6\--------------------x-x-x-x-|
D|-6\-----0--------------x-x-x-x-|-6\-----0--------------x-x-x-x-|
A|----------6h7--7--6h7----------|----------6h7--7--6h7----------| x4
E|-------------------------------|-------------------------------|

G|-6\--------------------x-x-x-x-|-6----9-----8----12----11---14-|
D|-6\-----0--------------x-x-x-x-|-6----9-----8----12----11---14-|
A|----------6h7--7--6h7----------|-4----7-----6----10-----9---12-|
E|-------------------------------|-------------------------------|

G|-6\--------------------x-x-x-x-|-6\----------------------0-----|
D|-6\-----0--------------x-x-x-x-|-6\-----0----------------------|
A|----------6h7--7--6h7----------|----------6h7--7--6h7--x----2--| 
E|-------------------------------|-------------------------------|

G|-6\--------------------x-x-x-x-|-6----9-----8----12------------|
D|-6\-----0--------------x-x-x-x-|-6----9-----8----12------------|
A|----------6h7--7--6h7----------|-4----7-----6----10------------|
E|-------------------------------|-------------------------------|

G|-------------------------------|
D|-------------------------------|
A|-9-9-9-9-9-9-9-9-9-9-9-9-9\----|
E|-------------------------------|


Guitar Solo 
G|-------------------------------|-------------------------------|
D|-------------------------------|-------------------------------|
A|-4--4--4-4-4-4---4-4-4---4-4-4-|-4--4--4-4-4-4---4-4-4---2-2-3-|
E|-------------------------------|-------------------------------|

G|-------------------------------|-------------------------------|
D|-------------------------------|-------2-----------------------|
A|-4--4--4-4-4-4---4-4-4---4-4-4-|-4--4------x-2-----2-2-----2-3-|
E|-------------------------------|-------------------------------|

G|-------------------------------|-------------------------------|
D|-------------------------2-----|-------------------------------|
A|-4--4------4--4-------4----4-2-|-4---4----4--4----4--4----2--3-|
E|-------------------------------|-------------------------------|

G|-------------------------------|-------------------------------|
D|-------------------------------|---2---------------------------|
A|-4--4------4--4--4---4---4-4-4-|-4---4-0-2-3-4--------------2--|
E|-------------------------------|-----------------0---2-2-3-----|

G|--------6-4--------------------|--------6-4--------------------|
D|------------6-4\2-2---2----2---|------------6-4\2-2---2----2/4-|
A|-/4--4--------------4----4---2-|-/4--4--------------4----4-----|
E|-------------------------------|-------------------------------|

G|-6-6-4h6-4---------------------|------------------------14\----|
D|-----------6-4-2--2-2-2--2-2/--|------------------------14\----|
A|-------------------------------|-------------------------------|
E|-------------------------------|-0-0---0---0-0-0-0-0-----------|


Outro
G|-6\--------------------x-x-x-x-|-6\----------------------0-----|
D|-6\-----0--------------x-x-x-x-|-6\-----0----------------------|
A|----------6h7--7--6h7----------|----------6h7--7--6h7--x----2--| 
E|-------------------------------|-------------------------------|

G|-6\--------------------x-x-x-x-|-6----9-----8----12---11---14--|
D|-6\-----0--------------x-x-x-x-|-6----9-----8----12---11---14--|
A|----------6h7--7--6h7----------|-4----7-----6----10----9---12--|
E|-------------------------------|-------------------------------|

G|-6\--------------------x-x-x-x-|-6\----------------------0-----|
D|-6\-----0--------------x-x-x-x-|-6\-----0----------------------|
A|----------6h7--7--6h7----------|----------6h7--7--6h7--x----2--| 
E|-------------------------------|-------------------------------|

G|-6\--------------------x-x-x-x-|-6----9-----8------------------|
D|-6\-----0--------------x-x-x-x-|-6----9-----8------------------|
A|----------6h7--7--6h7----------|-4----7-----6------------------|
E|-------------------------------|-------------------------------|


(Distortion on)
G|-------------------------------|-------------6----9-----8------|
D|-------------------------------|-------------6----9-----8------|
A|---6-6-6---6-6-6---6-6-6---6-6-|-6--6-6-6----4----7-----6------| x2
E|-------------------------------|-------------------------------|

G|-------------------------------|------------6--9--6--9--8--12\-|
D|-------------------------------|------------6--9--6--9--8--12\-|
A|---6-6-6---6-6-6---6-6-6---6-6-|-6--6-6-6---4--7--4--7--6--10\-|
E|-------------------------------|-------------------------------|


(Distortion off)
G|-------------------------------|-11----------------------------|
D|-------------------------------|-11----------------------------|
A|9-9-9-9-9-9-9-9-9-9-9-9-9-9-9-9|-------9-9-9-9-9-9-9-9-9-9-9-9-|
E|-------------------------------|-------------------------------|

G|-11----------------------------|-------------------------------|
D|-11-------------------------11-|-(11)----(11\)-----------------|
A|-------9-9-9-9-9-9-9-9-9----11-|-(11)----(11\)-----------------|
E|-----------------------------9-|-( 9)----( 9\)-----------------|


(Delay on)
G|-12\------------12\------------|-12\------------12\------------|
D|-11\------------11\------------|-11\------------11\------------|
A|-12\------------12\------------|-12\------------12\------------|
E|-------------------------------|-------------------------------|





Comments


Popular Primus tabs & chords
Fisticuffs 2 Bass Tabs
Harold Of The Rock Bass Tabs
Laquer Head Bass Tabs
Mephisto And Kevin 1 Bass Tabs
My Name Is Mud 4 Bass Tabs
Sargeant Baker Bass Tabs
Southbound Pachyderm 2 Bass Tabs
Last Salmon Man Intro Tabs
Making Plans For Nigel Tabs
Southpark Tabs


Song lyrics



↑ Back to top | Tablatures and chords are parodies/interpretations of the original songs. You may use it for private study, scholarship, research or language learning purposes only
© 2014 AZChords.com Contact us | Privacy policy | DMCA | Add/correct tabs | Request tabs | Top 50 tabs